Misc. Unsigned Bands - Murakami - Candy Thunder Text Guitar Tab

Learn song with the online tabulature player
Tab for 'Candy Thunder' by Murakami, off of their 'Oolong EP'
(after short keyboard intro)

(_) - Palm muted
~ - Sustain


http://www.myspace.com/murakamiband  - if you haven't heard.

This part repeated through intro and chorus along with the keyboard:
Guitar 1 (chorus)
e|--18-----16----14-------18-----16----14--------------9----11--9--------9-------|
B|----19-----16----14--------19----16---14--------11-9---11----------11-9--11-9--|
G|----------------------------------------------11-----------------11------------|
D|-------------------------------------------------------------------------------|
A|-------------------------------------------------------------------------------|
E|-------------------------------------------------------------------------------|


(First part of verses has no guitars)

Guitar 1 (verse)
e|----------------------------------------------------------------------------|
B|---(7)-(7)-(7)-(7)-(7)-(7)-(7)-(7)------------------------------------------|
G|---(6)-(6)-(6)-(6)-(6)-(6)-(6)-(6)--X2---(4)-(4)-(4)-(4)-(4)-(4)-(4)-(4)----|
D|---(4)-(4)-(6)-(4)-(4)-(4)-(4)-(4)-------(4)-(4)-(4)-(4)-(4)-(4)-(4)-(4)--X2|
A|-----------------------------------------(2)-(2)-(2)-(2)-(2)-(2)-(2)-(2)----|
E|----------------------------------------------------------------------------|

e|---------------------------------------------------------------------------|
B|---------------------------------------------------------------------------|
G|--(8)-(8)-(8)-(8)-(8)-(8)-(8)-(8)-------(6)-(6)-(6)-(6)-(6)-(6)-(6)-(6)----|
D|--(8)-(8)-(8)-(8)-(8)-(8)-(8)-(8)--X2---(6)-(6)-(6)-(6)-(6)-(6)-(6)-(6)-X2-|
A|--(6)-(6)-(6)-(6)-(6)-(6)-(6)-(6)-------(4)-(4)-(4)-(6)-(4)-(4)-(4)-(4)----|
E|---------------------------------------------------------------------------|
(Prechorus)
e|---------------------------------------------------------------------------|
B|---------------------------------------------------------------------------|
G|-(8)-(8)------(6)-(6)------(4)-(4)----(4)-(4)------------------------------|
D|-(8)-(8)-~~~--(6)-(6)-~~~--(4)-(4)-~~-(4)-(4)-~~--X2-----------------------|
A|-(6)-(6)------(4)-(4)------(2)-(2)----(2)-(2)------------------------------|
E|---------------------------------------------------------------------------|

Guitar 2 (verse)
e|--------------------------------------9--9-9-9----9--9-9-9--9-11-9-11-11-11---|
B|--7-11-7-11-11-11--7-11-7-11-11-11--11-11-------11-11-------------------------|
G|------------------------------------------------------------------------------|
D|------------------------------------------------------------------------------|
A|------------------------------------------------------------------------------|
E|------------------------------------------------------------------------------|
                                           (Prechorus)
e|-9-11-9-11-11-11----9--9-9-9--9--6----------------------------4-2----------|
B|------------------11-11------------9--7----7-9-11---6-7-9---4-----2--------|
G|---------------------------------------------------------------------------|
D|---------------------------------------------------------------------------|
A|---------------------------------------------------------------------------|
E|---------------------------------------------------------------------------|

e|-------------------4-2----------9------------------------------------------|
B|--7-9-11--6-7-9--4---------11-9---11-9-------------------------------------|
G|-------------------------11------------------------------------------------|
D|---------------------------------------------------------------------------|
A|---------------------------------------------------------------------------|
E|---------------------------------------------------------------------------|

Ending Chorus, guitar 2, listen to recording to hear when to come in  this whole thing X2.
e|---------------------------------------------------------------------------|
B|---------------------------------------------------------------------------|
G|---------------------------------------------------------------------------|
D|---4-4-4-4-4-4-4-4--X2-----------------------------------------------------|
A|------------------------2-2-2-2-2-2-2-2-4-4-4-4-4-4-4-4--------------------|
E|---------------------------------------------------------------------------|

End riff, guitar 1
e|--18----16----14-----18~~~--|
B|----19----16----14----------|
G|----------------------------|
D|----------------------------|
A|----------------------------|
E|----------------------------|