Misc. Unsigned Bands - My Auntie Sam - Diy Text Guitar Tab

Learn song with the online tabulature player
This tab is just based on Greg's part of the song and not jordan's

Greg doesnt play the intro or the verse


Pre Chorus

---------------------------------------------|
---------------------------------------------|
---------------------------------------------|
-4-4-4-4-4-4-4-4--6-6-6-6-6-6-6-6------------|    X2
-4-4-4-4-4-4-4-4--6-6-6-6-6-6-6-6------------|
-2-2-2-2-2-2-2-2--4-4-4-4-4-4-4-4------------|


Chorus (play twice)

-------------------------------------------------------------------------------|
-------------------------------------------------------------------------------|
-9-9-9-9-9-9-9-9-----------------13-13-13-13-13-13-13-11-11-11-11-11-11-11-----|
-9-9-9-9-9-9-9-9-9-9-9-9-9-9-9-9-13-13-13-13-13-13-13-11-11-11-11-11-11-11-----|
-7-7-7-7-7-7-7-7-9-9-9-9-9-9-9-9-11-11-11-11-11-11-11-9--9--9--9--9--9--9------|
-----------------7-7-7-7-7-7-7-7-----------------------------------------------|


interlude (play twice)

-----------------------------------------------------------|
-----------------------------------------------------------|
-9-9-9-9-9-9-9-9-11-11-11-11-11-11-11-13-13-13-13-13-13-13-|
-9-9-9-9-9-9-9-9-11-11-11-11-11-11-11-13-13-13-13-13-13-13-|
-7-7-7-7-7-7-7-7-9--9--9--9--9--9--9--11-11-11-11-11-11-11-|
-----------------------------------------------------------|