Misc. Unsigned Bands - My Last Tomorrow - Only Pretend Text Guitar Tab

Learn the song with the online tablature player
INTRO

)------------------------------------|
)------------------------------------|
)-------0----------------------------|
)--2---2-2---0----0------------------|  x2
)-2-2-3-----2-2--4-4-----------------|
)0---------0----4--------------------|

)------------------------------------|
)------------------------------------|
)---555------------------------------|  x2
)22-555-55-7775----------------------|
)22-333-55-7775----------------------|
)00-----33-5553----------------------|

VERSE 1

)------------------------------------|
)------------------------------------|
)-------0----------------------------|
)--2---2-2---0----0------------------|  x4
)-2-2-3-----2-2--4-4-----------------|
)0---------0----4--------------------|

CHORUS 1

)------------------------------------|
)------------------------------------|
)---555------------------------------|  x2
)22-555-55-7775----------------------|
)22-333-55-7775----------------------|
)00-----33-5553----------------------|

VERSE 2

)------------------------------------|
)------------------------------------|
)-------0----------------------------|
)--2---2-2---0----0------------------|  x6
)-2-2-3-----2-2--4-4-----------------|
)0---------0----4--------------------|

CHORUS 2

)------------------------------------|
)------------------------------------|
)---555------------------------------|  x2
)22-555-55-7775----------------------|
)22-333-55-7775----------------------|
)00-----33-5553----------------------|

SOLO

)023023023023023023023023023023023023035
)---------------------------------------|
)---------------------------------------|
)---------------------------------------|
)---------------------------------------|
)---------------------------------------|

)2-4-5-4-5-7-5-7-8-7-8-10-8-10-12-------|
)---------------------------------------|
)---------------------------------------|
)---------------------------------------|
)---------------------------------------|
)---------------------------------------|

)12-14-15-14-12.14.12.-------------------|
)---------------------15--13-12-12.13.12-|
)----------------------------------------|
)----------------------------------------|
)----------------------------------------|
)----------------------------------------|

)------------12-14-15-14-12.14.12.-------|
)---------------------------------15--13-|
)14-12----12-----------------------------|
)------16--------------------------------|
)----------------------------------------|
)----------------------------------------|

)---------------------------------------|
)-12-12.13.12---------------------------|
)------------14-12----------------------|
)------------------16-14\---------------|
)------------------------5-2220-2225222-|
)---------------------------------------|

)---------------------------------------|
)---------------------------------------|
)---------------------------------------|
)0-22*-5-2220-222---2*------------------|
)---------------------42----------------|
)---------------------------------------|

)---------------------------------------|
)---------------------------------------|
)---------------------------------------|
)0-22*-5-2220-222-525-6~-452**----------|
)---------------------------------------|
)---------------------------------------|

VERSE 3

)------------------------------------|
)------------------------------------|
)-------0----------------------------|
)--2---2-2---0----0------------------|  x6
)-2-2-3-----2-2--4-4-----------------|
)0---------0----4--------------------|

CHORUS 3

)------------------------------------|
)------------------------------------|
)---555------------------------------|  x6
)22-555-55-7775----------------------|
)22-333-55-7775----------------------|
)00-----33-5553----------------------|

OUTRO

)------------------------------------|
)------------------------------------|
)-------0----------------------------|
)--2---2-2---0----0------------------|  x2
)-2-2-3-----2-2--4-4-----------------|
)0---------0----4--------------------|