Misc. Unsigned Bands - Na - Minka Text Guitar Tab

Learn the song with the online tablature player
This is the Bass Line for the russian folk song, Minka.
Enjoy!
E:-----------------------------------------------------------------------|
B:-----------------------------------------------------------------------|
G:-------------------------------------------2---------------------------|
D:----2-----------2-----2-----2-----------2------------------------------|
A:-0-----3--0--2-----2-----0-----3--0--2--------0--3-----3-----2-----2---|
E:-------------------------------------------------3-----3-----0-----0---|

E:--------------------------------------------------------------------|
B:--------------------------------------------------------------------|
G:------------------2-------------------------------------------------|
D:---2-----------2----------------------------------------------------|
A:0-----3--0--2--------0----------------------------------------------|
E:--------------------------------------------------------------------|