Misc. Unsigned Bands - Named After You - Cant Take It Anymore Text Guitar Tab

Learn the song with the online tablature player
                    TIRED OF IT - named after you

Okay this is me and my friends band, website coming soon once dan get's it
running, named after you is

Jon Kunz-guitar
Dan tucker-drums
kelly skay- bass
leo rawle- either guitar or singing

INTRO
played with flanger set halfway and alot of distortion

e|-----2---2-------3---3-------0---0-------0---0-------|
B|-3-3--3-3-3-3-2-2-2-2-2-2-1-1-1-1-1-1-2-2-2-2-2-2----|  Repeat twice
G|-----------------------------------------------------|
D|-----------------------------------------------------|
A|-----------------------------------------------------|
E|-----------------------------------------------------|

MAIN RIFF- play with alot of distortion

e|------------------------------------------------------------------|
B|------------------------------------------------------------------|
G|------------------------------------------------------------------|
D|------------------------------------------------------------------|
A|-2-2-2-2-2-2-2-2-3-3-3-3-3-3-3-3-0-0-0-0-0-0-0-0-0-0-0-0-0-0-0-0--|
E|-3-3-3-3-3-3-3-3-2-2-2-2-2-2-2-2-1-1-1-1-1-1-1-1-2-2-2-2-2-2-2-2--|

thats it, fun and easy, how songs should be, expect more songs to come,
including the bass parts for this awesome song once i meet up with kelly