Misc. Unsigned Bands - Necroninja - Nightmare Tonight Text Guitar Tab

Learn the song with the online tablature player
e|------------------------------------------------------------------------------------|
B|------------------------------------------------------------------------------------|
G|------------------------------------------------------------------------------------|
D|-------------------7-----7----------------------------------------------------------|
A|----------------8-----8-----8-------8-----------------------------------------------|
D|-------------0-------------------0--------------------------------------------------|

e|------------------------------------------------------------------------------|
B|------------------------------------------------------------------------------|
G|------------------------------------------------------------------------------|
D|-------------------7-----7----------------------------------------------------|
A|----------------8-----8-----8-------8-----------------------------------------|
D|-------------0-------------------0--------------------------------------------|

e|-----------------------------------------------------------------------------|
B|-----------------------------------------------------------------------------|
G|-----------------------------------------------------------------------------|
D|-------------------7-----7---------------------------------------------------|
A|----------------8-----8-----8-------8----------------------------------------|
D|-------------8-------------------8-------------------------------------------|

e|--------------------------------------------------------------------------------|
B|--------------------------------------------------------------------------------|
G|--------------------------------------------------------------------------------|
D|------------------8-----------7----------7--------------------------------------|
A|---------------5-----------5----------------------------------------------------|
D|------------5-----------5-----------5-------------------------------------------|