Misc. Unsigned Bands - Negative Charge- No Guts No Glory Text Guitar Tab

Learn song with the online tabulature player
-----------------------------------------------------------------------------
                           no guts no glory - Negative Charge
-----------------------------------------------------------------------------
Tabbed by: tyrel
Email: relty7@hotmail.com


e|----------------------------------------------------------------------------|
B|----------------------------------------------------------------------------|
G|---------------------------------5h7-7777-5h7-7777-75-----------5h7-7777----|
D|-7---777777--7---777777--5h7-7777--------------------7--5h7-7777------------|
A|-7---777777--7---777777-----------------------------------------------------|
E|-5---777777--5---555555-----------------------------------------------------|
     PM......      ......
e|----------------------------------------------------------------------------|
B|----------------------------------------------------------------------------|
G|-5h7-7777-999975--------5h7-7777-5h7-7777-75-----------5h7-7777-5h7-7777----|
D|----------------5h7-7777--------------------7--5h7-7777---------------------|
A|----------------------------------------------------------------------------|
E|----------------------------------------------------------------------------|

e|---------------------------------------------------------------------------|
B|---------------------------------------------------------------------------|
G|-999999999999999916161616161616161616161616161616\-------------------------|
D|---------------------------------------------------------------------------|
A|---------------------------------------------------------------------------|
E|---------------------------------------------------------------------------|


| \  slide down
| h  hammer-on
| PM.... palm mute
=============================================================================