Misc. Unsigned Bands - Neither One - Nada One Text Guitar Tab

Learn the song with the online tablature player
verse1
e----------------------------------------------------|
b----------------------------------------------------|
g-------0-----------------------0--------------------|
d-----2----2-0--0---0-2-2-----2----2-0--0-------0--2-|
a---2-------------2---------2-------------2---2------|
E-0-----------------------0-----------------0--------|

verse 2
e-----------------------------------------------------|
b-------0------------------------0--------------------|
g-----2----2-0--0---0-2-2------2----2-0--0-------0--2-|
d---2-------------2----------2-------------2---2------|
a-0------------------------0-----------------0--------|
E-----------------------------------------------------|

this is the first hit song from neither one   (BAND DOES NOT YET EXIST)

SONG WRITEN AND SUBMITTED BY TAYLOR-BAMBIKILLER