Misc. Unsigned Bands - Nekropathy - Biopathic Xenophobia Text Guitar Tab

Learn the song with the online tablature player
Verse
tapped)    (x2)
|-------------------------|----------------------------|--------------------|
|-------------------------|----------------------------|----4/5\4-----------|
|-----660---------660-----|----5/6\5---------5/6\5-----|--------------------|
|---5-----5-----5-----5---|--5-------5-----5-------5---|--5-------5---------|
|-3---------303---------30|3-----------303-----------30|3-----------30------|
|-------------------------|----------------------------|--------------------|
                       Main Riff(x1)
|--------------|-------------------------|----------------------------------|
|--------------|-------------------------|----------------------------------|
|-----6/7\6----|-------------------------|----------------------------------|
|--------------|--------13-----13---13---|-------10--10----10/13--10/13-----|
|---5-------5--|--------12-----12---12---|--------9---9-----9/12---9/12-----|
|-3-----------3|000-000----000----0----0-|000-000---0---000------0----------|

Breakdown
x3)      Solo #1
|----------------|-----------------|-------2h5---------------8/11-----------|
|----------------|-----------------|-----4-----7----------10------13--------|
|----------------|-----------------|-2h5---------8p5h8/11------------14p11/-|
|--13-13-10-10/13|-----------------|----------------------------------------|
|--12-12--9--9/12|-5-4-3-0-4-5-4-3-|----------------------------------------|
|0---------------|-3-2-1-0-2-3-2-1-|----------------------------------------|

|---------12h15p12----------------12h15t18p15p12----------------------------|
|------14----------14----------14----------------14-------------------------|
|12h15----------------15-12h15----------------------15p12-------------------|
|---------------------------------------------------------15p12-------------|
|---------------------------------------------------------------16p15-------|
|---------------------------------------------------------------------17p15-|

|---------------------------------------------------------------------------|
|------------16----------------------16----------------------19-------------|
|---------15----15----------------15----15----------------18----18----------|
|------16----------16----------16----------16----------17----------17-------|
|---18----------------18----18----------------18----18----------------18----|
|15----------------------15----------------------17-------------------------|

|-----------------------|-----------------------------------141517181514----|
|------------19---------|----------------------------141617-----------------|
|---------18----18------|---------------------141517------------------------|
|------17----------17---|--------------141617-------------------------------|
|---18----------------18|-------151618--------------------------------------|
|17---------------------|151718---------------------------------------------|

|----------------------------------|----------------------------------------|
|171614----------------------------|------------------------16--------------|
|-------171514---------------------|---------------15----15----15----15-----|
|--------------171614--------------|------16----16----16----------16----16--|
|---------------------181615-------|---18----18-----------------------------|
|----------------------------181715|15--------------------------------------|

|--------|-----------------------------------------|------------------------|
|--------|------------------------19---------------|------------16----------|
|--------|---------------18----18----18----18------|---------15----15-------|
|---16---|------17----17----17----------17----17---|------16----------16----|
|18----18|---18----18----------------------------18|---18----------------18-|
|--------|17---------------------------------------|15----------------------|

|-----------------------|---------------------------------------------------|
|------------16---------|------------19----------------------19-------------|
|---------15----15------|---------18----18----------------18----18----------|
|------16----------16---|------17----------17----------17----------17-------|
|---18----------------18|---18----------------18----18----------------18----|
|15---------------------|17----------------------17-------------------------|

|-----------------------------------------------|---------------------------|
|------------16----------------------16---------|------------19-------------|
|---------15----15----------------15----15------|---------18----18----------|
|------16----------16----------16----------16---|------19----------19-------|
|---18----------------18----18----------------18|---20----------------20----|
|15----------------------15---------------------|18-------------------------|

|------------20---------|----------------1013|129---------------------------|
|---------19----19------|-------------12-----|----10------------------------|
|------18----------18---|--------1013--------|-------9----------9*----------|
|---19----------------19|-----12-------------|---------10----10-------------|
|20---------------------|1114----------------|------------12----------------|
|-----------------------|--------------------|------------------------------|
                           variation riff
|---------------------------------------------------------------------------|
|---------------------------------------------------------------------------|
|---------------------------------------------------------------------------|
|---------------------------------------------------------------------------|
|13--2--4--5-----------------13--2--4--5-----------------13--2--4--5--------|
|12--1--2--3-000-000-000-000-12--1--2--3-000-000-000-000-12--1--2--3--------|
                         Solo #2
|--------------------710129---|----------|----------------------------------|
|-----------69-----9--------10|----------|--------------------------912-----|
|---------7----710------------|9---------|---------------710-----10-----10--|
|------69---------------------|--10------|------69-----9-----912------------|
|----8------------------------|-----12*--|----8----811----------------------|
|710--------------------------|----------|710-------------------------------|

|------1013129------------|-----------145------------|-------------6666-----|
|---12---------10---------|---------3-----5----------|----------58----------|
|13---------------9-------|------14---------52-------|--------6-------------|
|-------------------10----|----3---------------2-----|-----58---------------|
|----------------------12*|-25-------------------3---|---7------------------|
|-------------------------|------------------------5*|69--------------------|

|--------------------|181715-------------------------------------|----------|
|------------------17|-------191716------------------------------|----------|
|-------------1518---|--------------181715-----------------------|----------|
|----------17--------|---------------------19171614--------------|----------|
|-----1619-----------|------------------------------181615-------|----------|
|1518----------------|-------------------------------------181715|000000000-|

|---------------------14*|171514-------------------------------|------------|
|------------------16----|-------171614------------------------|------------|
|-------------1417-------|--------------171514-----------------|------------|
|----------16------------|---------------------171614----------|------------|
|-----1518---------------|----------------------------18161515*|2-----------|
|1417--------------------|-------------------------------------|0-----------|
________________
Play verse again|
________________|          Chorus (x1)[tapped] Main Riff Again
|--------------------------------------------|------------------------------|
|--------------------------------------------|------------------------------|
|13----------10-------11--------6-----------6|------------------------------|
|---12----------9--------10-------5-------5--|----Verse (x3)----------------|
|------10---------7---------8-------4---4----|------------------------------|
|---------12--------9---------9-------6------|------------------------------|

Outro
x5)
|---------------------------------------------------------------------------|
|---------------------------------------------------------------------------|
|-----------------------------------------------------------------------5*--|
|-----------------------------------------------2h5p2----------------4*-----|
|----------------3h6p3-------3h6p3--------------------3h6p3-------3*--------|
|333-555-333-555-------3h6p3-------333333555555-------------3h6p3-----------|

Johnny Mcnay/ Lead 1
Davy Combs/ Lead 2
------------/Drummer
Jay Monroe/Rythm
------------/Vocalist

Have fun playing our songs. Technical Death Metal is the best!!!!