Misc. Unsigned Bands - Nickelodeon - Spongebog Squarepants Text Guitar Tab

Learn the song with the online tablature player
                                  SpongeBob - Nickelodeon

Please E-Mail Me, if something doesn't sound right!

Are you ready kids?

Aye Aye Captain.

I can't hear you.

Aye Aye Captain!

OHHHHHHH!

Main Riff:
e|-------------------------------------------------|
B|---10--10--12p10------10-12p10-----10------10----|
G|----------------11--11--------11-------11------11|
D|------------------12-----------------------------|
A|-------------------------------------------------|
E|-------------------------------------------------|

Who lives in a pineapple under the sea?

SpongeBob SquarePants!

e|-------------------------------------------------|
B|---15--15--17p15------15-17p15-----15------15----|
G|----------------16--16--------16-------16------16|
D|------------------17-----------------------------|
A|-------------------------------------------------|
E|-------------------------------------------------|

Absorbent and yellow and pourous is he!

SpongeBob SquarePants!

e|-------------------------------------------------|
B|---10--10--12p10------10-12p10-----10------10----|
G|----------------11--11--------11-------11------11|
D|------------------12-----------------------------|
A|-------------------------------------------------|
E|-------------------------------------------------|

If nautical nonsense be something you wish!

SpongeBob SquarePants!

e|-------------------------------------------------|
B|---15--15--17p15------15-17p15-----15------15----|
G|----------------16--16--------16-------16------16|
D|------------------17-----------------------------|
A|-------------------------------------------------|
E|-------------------------------------------------|

Then drop on the deck and flop like a fish!

SpongeBob SquarePants!

Ready?

"Sponge Bob Sqaure Pants!..."
e|-------------------------------------------------|
B|---15--------------15--------------15------------|
G|-------16--14----------16--14----------16--14----|
D|---------------16--------------16--------------16|
A|-------------------------------------------------|
E|-------------------------------------------------|

Ending

SpongeBob SquarePaaaaannttss!!!

e|-------------------------------------------------------|
B|-----------14--15--------15--17--19--17--19--15----15--|
G|---14--16------ H --------------- H ----- H ----14-----|
D|------- H ---------------------------------------------|
A|-------------------------------------------------------|
E|-------------------------------------------------------|

| H  Hold Note
| /  slide up
| \  slide down
| h  hammer-on
| p  pull-off
| ~  vibrato
| +  harmonic
| x  Mute note