Misc. Unsigned Bands - Nintendo - Super Mario Theme Text Guitar Tab

Learn the song with the online tablature player
                             SUPER MARIO THEME - Misc Unsigned Bands

e-0--0--0-----0--3-----------------------------0--3--5--1--3-------------|
B----------1-----------1--------------------1-----------------1--1--3--0-|
G-------------------0-----0-----2--3--2--0-------------------------------|
D----------------------------2-------------------------------------------|
A------------------------------------------------------------------------|
E------------------------------------------------------------------------|

                                               2X   (first ending)
e-3--2--1--------------------------3--2--1------o|------8--8--8-----|
B----------4--5--------1--------3-----------4--5-|------------------|
G----------------2--3-----2--3------------------o|------------------|
D-----------------------------------------------o|------------------|
A------------------------------------------------|------------------|
E-----------------------------------------------o|------------------|

   (second ending)
e------------------|
B-----4--3--1------|
G------------------|
D------------------|
A------------------|
E------------------|

e----------------0--------------------------0~---------------------------|
B-1--1--1--1--3-----1----------------------------------------------------|
G----------------------2--0--1--1--1--1--3-------------------------------|
D------------------------------------------------------------------------|
A------------------------------------------------------------------------|
E------------------------------------------------------------------------|

e----------------0-----------0--0--0-----0--3----------------------------|
B-1--1--1--1--3-----1-----------------1----------------------------------|
G----------------------2--0--------------------0-------------------------|
D------------------------------------------------------------------------|
A------------------------------------------------------------------------|
E------------------------------------------------------------------------|

| /  slide up
| \  slide down
| h  hammer-on
| p  pull-off
| ~  vibrato
| +  harmonic
| x  Mute note