Misc. Unsigned Bands - No Age - My Lifes Alright Without You Text Guitar Tab

Learn the song with the online tablature player
L.A's very own two-piece skate punk band, No Age, with the song "My Life's
Alright Without You" from their
debut album Weirdo Rippers. also on the 7" EP released by Youth Attack.

b=bend
/=slide up
\=slide down
U=strum upwards
D=strum downwards

0:00. The song has a weird sampling, running all the way through it.
My guess is that it's something like this:
e|---X---X---X-X---|
B|---X---X---X-X---|
G|---X---X---X-X---|
D|---X---X---X-X---|
A|---X---X---X-X---|
E|---X---X---X-X---|
     U   D   U D

0:04. Then there's the part where Randy uses some effect thingy:
e|------------------------|
B|---8--------------------|
G|----------8---7---5-7---|
D|------------------------|
A|------------------------|
E|------------------------| x10

0:39. Riff A:
e|------------------------------|
B|----4--4--4--4--4--4--4--44---|
G|----5--5--5--5--5--5--5--55---|
D|----5--5--5--5--5--5--5--55---|
A|----3--3--3--3--3--3--3--33---|
E|------------------------------| x4

0:46. Riff B (where the lyrics kick in):
e|-----------------------|
B|-----------------------|
G|---8-8-8-8-8-8b-8b-8---|
D|---9-9-9-9-9-9b-9b-9---|
A|---9-9-9-9-9-9b-9b-9---|
E|---7-7-7-7-7-7b-7b-7---| x4

0:53. Riff A x4

1:00. Riff B x4

1:07. Riff A x4

1:14. Riff B x8

1:26. Riff C:
e|---------------------------------------------------|
B|---------------------------------------------------|
G|---11-11-11-11-11-11-11-11\---4-4-4-4/---6-6-6-6---|
D|---12-12-12-12-12-12-12-12\---5-5-5-5/---7-7-7-7---|
A|---12-12-12-12-12-12-12-12\---5-5-5-5/---7-7-7-7---|
E|---10-10-10-10-10-10-10-10\---3-3-3-3/---5-5-5-5---| x4

1:40. random jibberish

1:44. Riff C (with a sampled solo in the background) x4

1:57. Ending notes:
e|------|
B|------|
G|--11--|
D|--12--|
A|--12--|
E|--10--|

happy No Ageing