Misc. Unsigned Bands - No Age - Neck Escaper Text Guitar Tab

Learn the song with the online tablature player
Intro
(Fingerpicked)
Repeat as necessary:

e:------------------------------|
B:---7--7--7--7--7--7--7--7-----|
G:----8--8--8--8--8--8--8--8----|  x2
D:--9--9--9--9------------------|
A:--------------9--9--9--9------|
E:------------------------------|

e:------------------------------|
B:---5--5--5--5--5--5--5--5-----|
G:----6--6--6--6--6--6--6--6----| x2
D:--7--7--7--7------------------|
A:--------------7--7--7--7------|
E:------------------------------|

Ending
(Use an octave pedal set to two octaves lower mixed with what you're playing)

e:--7/11-11-11-9-------9-9-9-------------------------------|
B:---------------12---------12-9----9-9-9---------9-9-9----|
G:--------------------------------11-------11-9-11---------|
D:---------------------------------------------------------|
A:---------------------------------------------------------|
E:---------------------------------------------------------|