Misc. Unsigned Bands - No Room For Jackson - Lovely Text Guitar Tab

Learn song with the online tabulature player
No Room For Jackson - Lovely

Intro
e|---------------------------------------------|
B|---------------------------------------------|
G|----------0----------0-----------0----0------| X 2
D|--------2----------0----0h2----2----2---2----|
A|------3-------3--2-----------0---------------|
E|---------------------------------------------|

Verse
e|---------------------------------------------|
B|---------------------------------------------|
G|----------0----------0-----------0----0------| X 4
D|--------2----------0----0h2----2----2---2----|
A|------3-------3--2-----------0---------------|
E|---------------------------------------------|

Chorus
e|--0-----0----0----0------------|
B|--1-----1----1----1-(Let-Ring)-|
G|--0-----2----2----2---(on-4th)-| X 4
D|--0-----2----3----0------------|
A|--2---------------3------------|
E|--3----------------------------|

Outro
e|-------------------------------------------0----|
B|-------------------------------------------1----|
G|----------0----------0-----------0-----0---0----| X1
D|--------2----------0----0h2----2-----3-----2----|
A|------3-------3--2-----------0-----3-------3----|
E|------------------------------------------------|

Intro 
Verse
Chorus
Verse
Chorus
Verse
Chorus
Verse
Outro