Misc. Unsigned Bands - Noisecontrollers - Gimme Love Text Guitar Tab

Learn the song with the online tablature player
                        Noisecontrollers - Gimme Love

e|-------------------------------------------------------|
B|-----------------------6/8/6---------------------------|
G|-5/4--5/7--5/7/9/2~~ ----------9/7/5--5/7/9/2~~ -------|   x 2
D|-------------------------------------------------------|
A|-------------------------------------------------------|
D|-------------------------------------------------------|

e|-------------------------------------------------------|
B|-------------------------------------------------------|
G|-------------------------------------------------------|   x 4
D|-5-4--5-7--5-7-9--2~~ --10-12-10--9-7-5--5-7-9--2~~ ---|
A|-5-4--5-7--5-7-9--2~~ --10-12-10--9-7-5--5-7-9--2~~ ---|
D|-5-4--5-7--5-7-9--2~~ --10-12-10--9-7-5--5-7-9--2~~ ---|