Misc. Unsigned Bands - Noothgrush - Oil Removed Text Guitar Tab

Learn the song with the online tablature player
                          Oil Removed - Noothgrush

Intro/Part 1

e|---------------------------------------------------------------------------|
B|---------------------------------------------------------------------------|
G|---------------------------------------------------------------------------|
D|---------------------------------------------------------------------------|
A|-------------------------------0-1-0--------------------------0-1-0--------|
E|--12/--2--1--0-1-0-1-0-1-1--0--0-1-0--2--1--0-1-0-1-0-1-1--0--0-1-0--------|
   * * * * * *                    * * * * * *

Part 2:
e|---------------------------------------------------------------------------|
B|---------------------------------------------------------------------------|
G|---------------------------------------------------------------------------|
D|---------------------------------------------------------------------------|
A|---------------------------------------------------------------------------|
E|---5-5-5--5--0-1-2-1-2-2-2--0-1-5-5-5--5--0-1-2-1-2-2-2--------------------|

Part 3:
e|---------------------------------------------------------------------------|
B|---------------------------------------------------------------------------|
G|---------------------------------------------------------------------------|
D|---------------------------------------------------------------------------|
A|---------------------------------------------------------------------------|
E|----5---2--3-2--0--2-0--3--0-2--0--1--5---2--3-2--0--2-0--3--0-2--1--------|

Part 4:
e|---------------------------------------------------------------------------|
B|---------------------------------------------------------------------------|
G|---------------------------------------------------------------------------|
D|---------------------------------------------------------------------------|
A|--0-----0--1-----0--2--3-2--3-2--3-0-----0-0-0-1---0--2--3-2--3-2--3-2-----|
E|--0-----0--1-----0--2--3-2--3-2--3-0-----0-0-0-1---0--2--3-2--3-2--3-2-----|

(play 4 times and let it ring for a second on the fourth time)

Part 5: (this is right after you let let the 2nd fret ring.)
e|---------------------------------------------------------------------------|
B|---------------------------------------------------------------------------|
G|---------------------------------------------------------------------------|
D|---------------------------------------------------------------------------|
A|---------3----------0--0-1-0-------------3----------0--0-1-0---------------|
E|--1--0-1---1-0-1-1--0--0-1-0---2--1--0-1---1-0-1-1--0--0-1-0---------------|
    * * * * * *                     * * * * * *

| /  slide up
| \  slide down
| h  hammer-on
| p  pull-off
| ~  vibrato
| +  harmonic
| x  Mute note