Misc. Unsigned Bands - Northmont - Fall Down Text Guitar Tab

Learn song with the online tabulature player
Northmont
Fall Down
Waiting

Capo 1

guitar 1 relative to capo except on chorus
guitar 2 not relative

Intro: guitar 1
E---------------------------------------------------|
B--3-2-3-2-3----3-2-3-2-3----3-2-3-2-3----3-2-3-5-3-|
G--2-2-2-2-2----2-2-2-2-2----2-2-2-2-2----2-2-2-2-2-|
D---------------------------------------------------|
A-2~---------0~-------------------------------------|
E-------------------------3~------------3~----------|

guitar 2... volume swell on the B12
E-----------------15~--13~--11~--13-15~-|
B-13~--11~--9~--------------------------|
G---------------------------------------|

Verse:
guitar 1
E-----------------------------|
B-3~--3~--3~-------3~--3~--3~-|
G-2~--2~--0~-------2~--2~--0~-|
D-0~--0~--0~-------0~--0~--0~-|
A-2~--0~--0~-------2~--0~--0~-|
E---------3~---------------3~-|

guitar 2
E--------------------------------------|
B--------------------------------------|
G-----------12~-10~-8~------12~-10~-8~-|

Pre Chorus:
guitar 1... strum
E---------|
B-3--3--3-|
G-2--2--0-|
D-0--0--0-|
A-2--0--0-|
E-------3-|

Chorus:
guitar 1
E----------------------|
B-9--8-----99-8--9-8---|
G-------8------8-----8-|
D----------------------|
A----------------------|
E----------------------|

guitar 2
D-10~--8-8~--10~--8-8~--10~--8-8~-|
A-10~--8-8~--10~--8-8~--10~--8-8~-|
E-8~---6-6~--8~---6-6~--8~---6-6~-|

D-3-3-3-3-3-3-3-3-6-6-6-6-6-6-6-6-|
A-3-3-3-3-3-3-3-3-6-6-6-6-6-6-6-6-|
E-1-1-1-1-1-1-1-1-4-4-4-4-4-4-4-4-|

Pre Verse: guitar 1
E---------------------------------------------------|
B--3-2-3-2-3----3-2-3-2-3----3-2-3-2-3----3-2-3-5-3-|
G--2-2-2-2-2----2-2-2-2-2----2-2-2-2-2----2-2-2-2-2-|
D---------------------------------------------------|
A-2~---------0~-------------------------------------|
E-------------------------3~------------3~----------|

guitar 2...
E-----------------13-15~-|
B-13~--11~--9~-----------|
G------------------------|

Verse:
guitar 1
E-----------------------------|
B-3~--3~--3~-------3~--3~--3~-|
G-2~--2~--0~-------2~--2~--0~-|
D-0~--0~--0~-------0~--0~--0~-|
A-2~--0~--0~-------2~--0~--0~-|
E---------3~---------------3~-|

guitar 2
E-------------------------------------|
B-----------11~--9-8-4~---------------|
G--------------------------12~--10-8~-|

Pre Chorus:
guitar 1... strum
E--------------------------|
B-3--3--3------------------|
G-2--2--0------------------|
D-0--0--0--7-7-7-7-7-7-7-7-|
A-2--0--0--7-7-7-7-7-7-7-7-|
E-------3--5-5-5-5-5-5-5-5-|

Chorus:
guitar 1
E----------------------|
B-9--8-----99-8--9-8---|
G-------8------8-----8-|
D----------------------|
A----------------------|
E----------------------|

guitar 2
D-10~--8-8~--10~--8-8~--10~--8-8~-|
A-10~--8-8~--10~--8-8~--10~--8-8~-|
E-8~---6-6~--8~---6-6~--8~---6-6~-|

D-3-3-3-3-3-3-3-3-6-6-6-6-6-6-6-6-|
A-3-3-3-3-3-3-3-3-6-6-6-6-6-6-6-6-|
E-1-1-1-1-1-1-1-1-4-4-4-4-4-4-4-4-|

Solo:
guitar 1... a wah pedal is used
E----------------------------------|
B-44-6-88-------11p9----11p9-------|
G-----------12p8----12p8----12p8---|

E---------------------------------|
B-13~-15-16-11~-16-15-9~-11-13-15-|
G---------------------------------|

guitar 2
E---------------------------------------------------|
B--3-2-3-2-3----3-2-3-5-3----3-2-3-2-3----3-2-3-5-3-|
G--2-2-2-2-2----2-2-2-2-2----2-2-2-2-2----2-2-2-2-2-|
D---------------------------------------------------|
A-2~---------0~-------------------------------------|
E-------------------------3~------------3~----------|

Breakdown:
E-----------------------------------------|
B-33--33----------------------------------|
G-22--22----------------------------------|
D-00--00--5-5-5-5-5-5-5-5-7-7-7-7-7-7-7-7-|
A-22--00--5-5-5-5-5-5-5-5-7-7-7-7-7-7-7-7-|
E---------3-3-3-3-3-3-3-3-5-5-5-5-5-5-5-5-|

Chorus: twice
guitar 1
E----------------------|
B-9--8-----99-8--9-8---|
G-------8------8-----8-|
D----------------------|
A----------------------|
E----------------------|

guitar 2... twice
D-10~--8-8~--10~--8-8~--10~--8-8~-|
A-10~--8-8~--10~--8-8~--10~--8-8~-|
E-8~---6-6~--8~---6-6~--8~---6-6~-|

2nd time do this twice
D-3-3-3-3-3-3-3-3-6-6-6-6-6-6-6-6-|
A-3-3-3-3-3-3-3-3-6-6-6-6-6-6-6-6-|
E-1-1-1-1-1-1-1-1-4-4-4-4-4-4-4-4-|

Outro:
guitar 1
E--------------|
B-13~--11~--9~-|
G--------------|

guitar 2
-----------------------------|
B--3-2-3-2-3----3-2-3-5-3----|
G--2-2-2-2-2----2-2-2-2-2----|
D----------------------------|
A-2~---------0~--------------|
E-------------------------3~-|

Questions?
Email at cory.roesch@yahoo.com