Misc. Unsigned Bands - Northmont - Hero Text Guitar Tab

Learn the song with the online tablature player
Northmont
Hero
Wating

Half-Step Down

Intro
Guitar 2:
E--------------------------|
B--------------------------|
G-6777-7-------9-7---------|
D-xxxx-x-------x-x---------|
A-4555-57-77-777-5-5-55-55-|
E-------5-55-55----3-33-33-|

E---------------------|
B---------------------|
G-6777-7-------9-7----|
D-xxxx-x-------x-x----|
A-4555-57-77-777-5-5~-|
E-------5-55-55----3~-|

Verse
Guitar 1: tremolo effect
E---------|
B---------|
G-----7-7-|
D-9-5-7-7-|
A-9-5-5-5-|
E-7-3-----|

Guitar 2: repeat til pre-chorus
E--------|
B--------|
G-7-7-77-|
D-x-x-xx-|
A-5-5-55-|
E--------|

Pre-Chorus
Guitar 1:
E------------------|
B------------------|
G------------------|
D-55555555-77777777|
A-55555555-77777777|
E-33333333-55555555|

Guitar 2:
E-------------------------------------|
B--10-7--10-7---7--12-10---12-10---10-|
G-7-----7-----7---9------9-------9----|
D-------------------------------------|
A-------------------------------------|
E-------------------------------------|

Chorus
Guitar 1:
E---------------------|
B---------------------|
G---------------------|
D-9999-5555-7777-7777-|
A-9999-5555-7777-7777-|
E-7777-3333-5555-5555-|
3x then

E---------|
B---------|
G---------|
D-222224-5|
A-222224-5|
E-000002-3|

Guitar 2:
E--------------------------------------|
B--------------------------------------|
G-7-7-777714-14-14149-9-999911-11-1111-|
D-x-x-xxxx-x--x--x-xx-x-xxxx-x--x--x-x-|
A-5-5-555512-12-12127-7-7777-9--9--9-9-|
E--------------------------------------|
3x then

E---------|
B---------|
G-444446-7|
D-xxxxxx-x|
A-222224-5|
E---------|

Verse
Guitar 1: tremolo effect
E---------|
B---------|
G-----7-7-|
D-9-5-7-7-|
A-9-5-5-5-|
E-7-3-----|

Guitar 2: repeat til pre-chorus
E--------|
B--------|
G-7-7-77-|
D-x-x-xx-|
A-5-5-55-|
E--------|

Pre-Chorus
Guitar 1:
E------------------|
B------------------|
G------------------|
D-55555555-77777777|
A-55555555-77777777|
E-33333333-55555555|

Guitar 2:
E-------------------------------------|
B--10-7--10-7---7--12-10---12-10---10-|
G-7-----7-----7---9------9-------9----|
D-------------------------------------|
A-------------------------------------|
E-------------------------------------|

Chorus
E---------------------|
B---------------------|
G---------------------|
D-9999-5555-7777-7777-|
A-9999-5555-7777-7777-|
E-7777-3333-5555-5555-|
3x then

E---------|
B---------|
G---------|
D-222224-5|
A-222224-5|
E-000002-3|

Guitar 2:
E--------------------------------------|
B--------------------------------------|
G-7-7-777714-14-14149-9-999911-11-1111-|
D-x-x-xxxx-x--x--x-xx-x-xxxx-x--x--x-x-|
A-5-5-555512-12-12127-7-7777-9--9--9-9-|
E--------------------------------------|
3x then

E---------|
B---------|
G-444446-7|
D-xxxxxx-x|
A-222224-5|
E---------|

Break
Guitar 2:
E--------------------------|
B--------------------------|
G-6777-7-------9-7---------|
D-xxxx-x-------x-x---------|
A-4555-57-77-777-5-5-55-55-|
E-------5-55-55----3-33-33-|
3x then

E--------------------------|
B--------------------------|
G-67-7-7-------9-7---------|
D-xx-x-x-------x-x---------|
A-45-5-57-77-777-5-5-55-55-|
E-------5-55-55----3-33-33-|

Pre-Chorus
Guitar 1:
E------------------------------------|
B------------------------------------|
G------------------------------------|
D-77777777-55555555-7777777777777777-|
A-77777777-55555555-7777777777777777-|
E-55555555-33333333-5555555555555555-|

Guitar 2:
E-------------------------------------|
B--12-10--12-10---10--10-7---10-7---7-|
G-9------9------9----7-----7------7---|
D-------------------------------------|
A-------------------------------------|
E-------------------------------------|

E---------------------------------------|
B--12-10--12-10---10--12-10--12-10---10-|
G-9------9------9----9------9------9----|
D---------------------------------------|
A---------------------------------------|
E---------------------------------------|

Chorus
Guitar 1:
E---------------------|
B---------------------|
G---------------------|
D-9999-5555-7777-7777-|
A-9999-5555-7777-7777-|
E-7777-3333-5555-5555-|
5x then

E---------|
B---------|
G---------|
D-222224-5|
A-222224-5|
E-000002-3|

Guitar 2:
E--------------------------------------|
B--------------------------------------|
G-7-7-777714-14-14149-9-999911-11-1111-|
D-x-x-xxxx-x--x--x-xx-x-xxxx-x--x--x-x-|
A-5-5-555512-12-12127-7-7777-9--9--9-9-|
E--------------------------------------|
5x then

E---------|
B---------|
G-444446-7|
D-xxxxxx-x|
A-222224-5|
E---------|