Misc. Unsigned Bands - Northmont - Little Less Text Guitar Tab

Learn song with the online tabulature player
Northmont
Little Less
Waiting

Intro/Verse: played throughout whole song
E-0-000---0--00-0-000-000---0--00-0-00-|
B-0-000---0--00-0-000-000---0--00-0-00-|
G-6-666/8-4--44-4-446-666/8-4--44-4-44-|
D--------------------------------------|
A--------------------------------------|
E--------------------------------------|

E-0-00000--00-0-000-00000--00-0-00-|
B-0-00000--00-0-000-00000--00-0-00-|
G-3-33334--44-4-443-33334--44-4-44-|
D----------------------------------|
A----------------------------------|
E----------------------------------|

Pre-Chorus:
E-2------2-------------------|
B---2-0----2-0----0-0----0-0-|
G----------------3------3----|
D----------------------------|
A----------------------------|
E----------------------------|

E-2------2-----------------|
B---2-0----2-0----0-0----0-|
G----------------3------3--|
D--------------------------|
A--------------------------|
E--------------------------|

Chorus:
E-------------------------|
B-0-7~--7/9\7~--0-5-4-0~--|
G-------------------------|
D-------------------------|
A-------------------------|
E-------------------------|

E------------------------------|
B-0-7~----0-5~----0-7~----0-5~-|
G------------------------------|
D------------------------------|
A------------------------------|
E------------------------------|

Break: twice
E-------2-----------|
B-0-4~----2-0--0-5~-|
G-------------------|
D-------------------|
A-------------------|
E-------------------|

Chorus: twice
E------------------------|
B-0-7~--7/9\7~--0-5-4-0~-|
G------------------------|
D------------------------|
A------------------------|
E------------------------|

Solo: twice
E-----------------------------|
B-0002/4~--4h5p4~--5555\4-2-0-|
G-----------------------------|
D-----------------------------|
A-----------------------------|
E-----------------------------|

Break 2:
twice
E-2/7~--12\7~--7\4~-|
B-------------------|
G-------------------|
D-------------------|
A-------------------|
E-------------------|

twice
E-2/7~--7\2~--2/7~--7\4~-|
B------------------------|
G------------------------|
D------------------------|
A------------------------|
E------------------------|

Pre-Chorus:
E-2------2-------------------|
B---2-0----2-0----0-0----0-0-|
G----------------3------3----|
D----------------------------|
A----------------------------|
E----------------------------|

E-2------2-----------------|
B---2-0----2-0----0-0----0-|
G----------------3------3--|
D--------------------------|
A--------------------------|
E--------------------------|

Chorus Part 1: twice
E-0-000---0--00-0-000-000---0--00-0-00-|
B-0-000---0--00-0-000-000---0--00-0-00-|
G-6-666/8-4--44-4-446-666/8-4--44-4-44-|
D--------------------------------------|
A--------------------------------------|
E--------------------------------------|

E-0-00000--00-0-000-00000--00-0-00-|
B-0-00000--00-0-000-00000--00-0-00-|
G-3-33334--44-4-443-33334--44-4-44-|
D----------------------------------|
A----------------------------------|
E----------------------------------|

Chorus Part 2: 4 times
E-------------------------|
B-0-7~--7/9\7~--0-5-4-0~--|
G-------------------------|
D-------------------------|
A-------------------------|
E-------------------------|

Outro: twice
E-0-000---0--00-0-000-000---0--00-0-00-|
B-0-000---0--00-0-000-000---0--00-0-00-|
G-6-666/8-4--44-4-446-666/8-4--44-4-44-|
D--------------------------------------|
A--------------------------------------|
E--------------------------------------|

E-0-00000--00-0-000-00000--00-0-00-|
B-0-00000--00-0-000-00000--00-0-00-|
G-3-33334--44-4-443-33334--44-4-44-|
D----------------------------------|
A----------------------------------|
E----------------------------------|

End On:
E-0|
B-0|
G-6|
D--|
A--|
E--|

Questions?
Email at cory.roesch@yahoo.com