Misc. Unsigned Bands - Northmont - Remembered Text Guitar Tab

Learn song with the online tabulature player
Northmont
Remembered
Waiting

Guitar 1
Repeat from fade in at beginning to 3:35
E----------------|
B-3--3--3-4-46-4-|
G--3--3----------|
D----------------|
A----------------|
E----------------|

Repeat from 3:35 to 5:13
E-10---10--10-11--11-13-11-|
B---11---11----------------|
G--------------------------|
D--------------------------|
A--------------------------|
E--------------------------|

Repeat from 5:13 to end
E----------------|
B-3--3--3-4-46-4-|
G--3--3----------|
D----------------|
A----------------|
E----------------|

Guitar 2
Repeat from 0:40 to 0:58
E-----------------|
B-6~-4-3~-6~-8-3~-|
G-----------------|
D-----------------|
A-----------------|
E-----------------|

Repeat from 0:58 to 1:18
E-10~-6~
B-------|
G-------|
D-------|
A-------|
E-------|

Repeat from 1:18 to 1:48
E-------------|
B-------------|
G-3~----5~----|
D-3~-3~-5~-1~-|
A-1~-3~-3~-1~-|
D----3~----1~-|

Repeat from 1:48 to 2:07
E-------------|
B-------------|
G-3~----------|
D-3~-1~-5~-1~-|
A-1~-1~-5~-1~-|
D----1~-5--1~-|

Repeat from 2:07 to 2:28
E---------------|
B---------------|
G-3~----5~------|
D-3~-3~-5~-1~3~-|
A-1~-3~-3~-1~3~-|
D----3~----1~3~-|

Repeat from 2:56 to 3:35
E-----------------|
B-6~-4-3~-6~-8-3~-|
G-----------------|
D-----------------|
A-----------------|
E-----------------|

Repeat from 3:35 to 4:14
E---------------|
B---------------|
G-3~----5~------|
D-3~-3~-5~-1~3~-|
A-1~-3~-3~-1~3~-|
D----3~----1~3~-|

Repeat from 4:14 to 5:13
E-------------|
B-------------|
G-3~----------|
D-3~-1~-5~-1~-|
A-1~-1~-5~-1~-|
D----1~-5--1~-|

Questions?
Email at cory.roesch@yahoo.com