Misc. Unsigned Bands - Northmont - Waiting Text Guitar Tab

Learn song with the online tabulature player
Northmont
Waiting
Waiting

Half step down

Intro:
E-----------------------------------------------------------------------|
B-9~--------------------------------------------------------------------|
G-----------------------------------------------------------------------|
D-------6-6-6-6-6-6-6-6-4-4-4-4-4-4-4-4-2-2-2-2-2-2-2-2-4-4-4-4-4-4-4-4-|
A-------6-6-6-6-6-6-6-6-4-4-4-4-4-4-4-4-2-2-2-2-2-2-2-2-4-4-4-4-4-4-4-4-|
D-------6-6-6-6-6-6-6-6-4-4-4-4-4-4-4-4-2-2-2-2-2-2-2-2-4-4-4-4-4-4-4-4-|

Verse: 12’s are harmonic (whole reason tab in half-step)
E---------------------------12-|
B-9~--7~--5~--9~--7~--5~--12---|
G-8~--6~--4~--8~--6~--4~-------|
D-6~--4~--2~--6~--4~--2~-------|
A-6~--4~--2~--6~--4~--2~-------|
D-6~--4~--2~--6~--4~--2~-------|

Pre Chorus:
E--------------------------------|
B-9~--7~--5~--9~--7~--5~--77--77-|
G-8~--6~--4~--8~--6~--4~--66--66-|
D-6~--4~--2~--6~--4~--2~--44--44-|
A-6~--4~--2~--6~--4~--2~--44--44-|
D-6~--4~--2~--6~--4~--2~--44--44-|

Chorus:
E-----------------------------------------------------------------|
B-----------------------------------------------------------------|
G-----------------------------------------------------------------|
D-6-6-6-6-6-6-6-6-44-44~--4-4-4-4-2-2-2-2-2-2-2-2-22-22~--2-2-2-2-|
A-6-6-6-6-6-6-6-6-44-44~--4-4-4-4-2-2-2-2-2-2-2-2-22-22~--2-2-2-2-|
D-6-6-6-6-6-6-6-6-44-44~--4-4-4-4-2-2-2-2-2-2-2-2-22-22~--2-2-2-2-|

E-----------------------------------------------------------------|
B-----------------------------------------------------------------|
G-----------------------------------------------------------------|
D-6-6-6-6-6-6-6-6-44-44~--4-4-4-4-2-2-2-2-2-2-2-2-44-44~--4-4-4-4-|
A-6-6-6-6-6-6-6-6-44-44~--4-4-4-4-2-2-2-2-2-2-2-2-44-44~--4-4-4-4-|
D-6-6-6-6-6-6-6-6-44-44~--4-4-4-4-2-2-2-2-2-2-2-2-44-44~--4-4-4-4-|

Pre-Verse:
E------7-------------7/9--7-6-4---2~-|
B-9/11---9/11~--7--------------4-----|
G------------------------------------|
D------------------------------------|
A------------------------------------|
D------------------------------------|

Verse:
E-------------------------------------------|
B-9~--7~--5~--4/7~---9~--7~--5~-------------|
G-8~--6~--4~---------8~--6~--4~---4-3-1---1-|
D-6~--4~--2~---------6~--4~--2~----------4--|
A-6~--4~--2~---------6~--4~--2~-------------|
D-6~--4~--2~---------6~--4~--2~-------------|

Pre Chorus:
E--------------------------------|
B-9~--7~--5~--9~--7~--5~--77--77-|
G-8~--6~--4~--8~--6~--4~--66--66-|
D-6~--4~--2~--6~--4~--2~--44--44-|
A-6~--4~--2~--6~--4~--2~--44--44-|
D-6~--4~--2~--6~--4~--2~--44--44-|

Chorus:
E-----------------------------------------------------------------|
B-----------------------------------------------------------------|
G-----------------------------------------------------------------|
D-6-6-6-6-6-6-6-6-44-44~--4-4-4-4-2-2-2-2-2-2-2-2-22-22~--2-2-2-2-|
A-6-6-6-6-6-6-6-6-44-44~--4-4-4-4-2-2-2-2-2-2-2-2-22-22~--2-2-2-2-|
D-6-6-6-6-6-6-6-6-44-44~--4-4-4-4-2-2-2-2-2-2-2-2-22-22~--2-2-2-2-|

E-----------------------------------------------------------------|
B-----------------------------------------------------------------|
G-----------------------------------------------------------------|
D-6-6-6-6-6-6-6-6-44-44~--4-4-4-4-2-2-2-2-2-2-2-2-44-44~--4-4-4-4-|
A-6-6-6-6-6-6-6-6-44-44~--4-4-4-4-2-2-2-2-2-2-2-2-44-44~--4-4-4-4-|
D-6-6-6-6-6-6-6-6-44-44~--4-4-4-4-2-2-2-2-2-2-2-2-44-44~--4-4-4-4-|

Break:
E-------------------------------------------------------------------|
B-------------------------------------------------------------------|
G-------------------------------------------------------------------|
D-6-6-6-6-6-6-6-6-2-2-2-2-2-2-2-2-2-4-4-4-4-4-4-4-4-4-4-4-4-4-4-4-4-|
A-6-6-6-6-6-6-6-6-2-2-2-2-2-2-2-2-2-4-4-4-4-4-4-4-4-4-4-4-4-4-4-4-4-|
D-6-6-6-6-6-6-6-6-2-2-2-2-2-2-2-2-2-4-4-4-4-4-4-4-4-4-4-4-4-4-4-4-4-|

E-------------------------------------------------------------------|
B-------------------------------------------------------------------|
G-------------------------------------------------------------------|
D-6-6-6-6-6-6-6-6-2-2-2-2-2-2-2-2-2-4-4-4-4-4-4-4-4-2-2-2-2-2-2-2-2-|
A-6-6-6-6-6-6-6-6-2-2-2-2-2-2-2-2-2-4-4-4-4-4-4-4-4-2-2-2-2-2-2-2-2-|
D-6-6-6-6-6-6-6-6-2-2-2-2-2-2-2-2-2-4-4-4-4-4-4-4-4-2-2-2-2-2-2-2-2-|

Fading out
E---------------------------------|
B-7/9-7/9-7/9-7/9-7/9-7/9-7/9-7/9-|
G---------------------------------|
D---------------------------------|
A---------------------------------|
D---------------------------------|

E---------------------------------------------------------------------|
B---9----9/12-11~------11----11/12-11~--------------------------------|
G-8---8-------------11----11------------------------------------------|
D-----------------------------------------------2-2-2-2-2-2-2-2-4-4-4-|
A-----------------------------------------------2-2-2-2-2-2-2-2-4-4-4-|
D-----------------------------------------------2-2-2-2-2-2-2-2-4-4-4-|

Chorus:
E-----------------------------------------------------------------|
B-----------------------------------------------------------------|
G-----------------------------------------------------------------|
D-6-6-6-6-6-6-6-6-44-44~--4-4-4-4-2-2-2-2-2-2-2-2-22-22~--2-2-2-2-|
A-6-6-6-6-6-6-6-6-44-44~--4-4-4-4-2-2-2-2-2-2-2-2-22-22~--2-2-2-2-|
D-6-6-6-6-6-6-6-6-44-44~--4-4-4-4-2-2-2-2-2-2-2-2-22-22~--2-2-2-2-|

E-----------------------------------------------------------------|
B-----------------------------------------------------------------|
G-----------------------------------------------------------------|
D-6-6-6-6-6-6-6-6-44-44~--4-4-4-4-2-2-2-2-2-2-2-2-44-44~--4-4-4-4-|
A-6-6-6-6-6-6-6-6-44-44~--4-4-4-4-2-2-2-2-2-2-2-2-44-44~--4-4-4-4-|
D-6-6-6-6-6-6-6-6-44-44~--4-4-4-4-2-2-2-2-2-2-2-2-44-44~--4-4-4-4-|

Outro:
E-----------------------------------------------|
B---9---9/12-11-----11--12--11---5---7---5---4--|
G-8--8------------11--11--11----4---4---4---4---|
D-----------------------------------------------|
A-----------------------------------------------|
D-----------------------------------------------|

2nd time add this
E-----------|
B-----------|
G-6-4/6-4/6-|
D-----------|
A-----------|
D-----------|

Questions?
Email at cory.roesch@yahoo.com