Misc. Unsigned Bands - Not Available - Dixie Text Guitar Tab

Learn song with the online tabulature player
I transposed this from my banjo to guitar. It ain't nothin fancy but it's the tune of 
Dixie. I threw in some hammer ons to make it sound a bit better. Feel free to leave 
or suggestions.
www.myspace.com/chipandmusic


Dixie


Intro/Verse

E----0------------------0-0-0h2----2-2-2-0-2-0-2--2-4-5-0-0-2-0---------------------|
B-------2--------0-2-3----------2------------------------------------0-2-0-0h20-----|
G----------2-2-2------------------------------------------------2-2-------------2---|
D-----------------------------------------------------------------------------------|
A-----------------------------------------------------------------------------------|
E-----------------------------------------------------------------------------------|


Chorus

E----5-5-9-7-5-2-5-2s7-2s7-2-5-9-7-5-2-5-5-2-0---5-2-0-0----------0h20------------|
B----------------------------------------------2---------2---2-0----------0---0---|
G----------------------------------------------------------2------------2---2---2-|
D---------------------------------------------------------------------------------|
A---------------------------------------------------------------------------------|
E---------------------------------------------------------------------------------|