Misc. Unsigned Bands - Nursery Crimes - Grudges Text Guitar Tab

Learn the song with the online tablature player
intro
||-----------------------------------------------------------------------------|
||-----------------------------------------------------------------------------|
||-----------------------------------------------------------------------------|
||------8888-7777-----8888-7777-55-77-55---------------------------------------|
||-0--------------5555-------------------55------------------------------------|
||-0---------------------------------------------------------------------------|

||-----------------------------------------------------------------------------|
||-----------------------------------------------------------------------------|
||------8888-7777------7777-55-77-55-------------------------------------------|
||----------------5555---------------55----------------------------------------|
||-0---------------------------------------------------------------------------|
||-0---------------------------------------------------------------------------|

||-----------------------------------------------------------------------------|
||-----------------------------------------------------------------------------|
||-----------------------------------------------------------------------------|
||------8888-7777------7777-55-77-55-------------------------------------------|
||-0--------------5555---------------55----------------------------------------|
||-0---------------------------------------------------------------------------|

||-----------------------------------------------------------------------------|
||-----------------------------------------------------------------------------|
||-777777-888888-101010101010-121212121212-------------------------------------|
||-----------------------------------------------------------------------------|
||-----------------------------------------------------------------------------|
||-----------------------------------------------------------------------------|

verse
||-----------------------------------------------------------------------------|
||-----------------------------------------------------------------------------|
||-----------------1010108-8-8-8-8---------------------------------------------|
||-----------------x-x-x-x-x-x-x-x---------------------------------------------|
||-8-8-8-8-8-8-0-0-8-8-8-6-6-6-6-6---------------------------------------------|
||-8-8-8-8-8-8-0-0-------------------------------------------------------------|
||-----------------------------------------------------------------------------|
||-----------------------------------------------------------------------------|
||-----------------1010108-8-8-8-8---------------------------------------------|
||-----------------x-x-x-x-x-x-x-x---------------------------------------------|
||-8-8-8-8-8-8-0-0-8-8-8-6-6-6-6-6---------------------------------------------|
||-8-8-8-8-8-8-0-0-------------------------------------------------------------|

chorus
||-----------------------------------------------------------------------------|
||-----------------------------------------------------------------------------|
||-----------------------------------------------------------------------------|
||-----------------------------------------------------------------------------|
||-111-111--1--1--111-111--1--1--111-111--1--1--111-111--1--1------------------|
||-111-111--1--1--111-111--1--1--111-111--1--1--111-111--1--1------------------|
   ... ...  .  .  ... ...  .  .  ... ...  .  .  ... ...  .  .
||-----------------------------------------------------------------------------|
||-----------------------------------------------------------------------------|
||-----------------------------------------------------------------------------|
||-----------------------------------------------------------------------------|
||-000-000--0--0--000-000--0--0--000-000--0--0--000-000--0--0------------------|
||-000-000--0--0--000-000--0--0--000-000--0--0--000-000--0--0------------------|
   ... ...  .  .  ... ...  .  .  ... ...  .  .  ... ...  .  .