Misc. Unsigned Bands - October Burns - Cats The Musical Text Guitar Tab

Learn song with the online tabulature player
It's exactly the way it should be because im the guitarist in the band.Play it now
Soon we'll have a website something like www.octoberburns.com.Have fun.:)
intro
e------------------------------------------------------------------|
b------------------------------------------------------------------|
g------------------------------------------------------------------|
d--7------5------3------5--------------7------5------3------5------|
a--7--x7--5--x7--3--x8--5---repeat 2---7--x7--5--x7--3--x8--5------|
E--5------3------1------3--------------5------3------1------3------|

Chorus
e------------------------------------------------------------------|
b------------------------------------------------------------------|
g-5----------------------------------------------------------------|
d-5--5--3--3-3-3-3-3-3-3-3-----------------------------------------|
a-3--5--3--3-3-3-3-3-3-3-3--x4-------------------------------------|
E----3--1--1-1-1-1-1-1-1-1-----------------------------------------|

verse 1/chords
-a-minor-a-minor-a-minor--c-c-c--g-g-g--d-d-d-x3-f-x12-------------

chorus-

verse 2
e------------------------------------------------------------------|
b------------------------------------------------------------------|
g------------------------------------------------------------------|
d-7----5-----3----5---7---10----3----5--3--------------------------|
a---x7---x7----x8--x3---x7---x7---x8------x16----------------------|
E-5----3-----1----3---5----8----1----3--1--------------------------|

chorus

verse 3-same as verse 1

outro
e------------------------------------------------------------------|
b------------------------------------------------------------------|
g-5----------------------------------------------------------------|
d-5----------------------------------------------------------------|
a-3----------------------------------------------------------------|
E------------------------------------------------------------------|