Misc. Unsigned Bands - Oddball - Open Skies Text Guitar Tab

Learn the song with the online tablature player
Also, try switching to chords that I noted at the top of the intro to make it easier or
sound better!

Pre-Intro
e|--------|
B|--------|
G|--5--6--|
D|--5--6--|
A|--3--4--|
E|--------|

Intro  D                   G     B  A
e|-----------------------------------------|
B|-----------------------------------------|
G|--5/7-77--777-7--77-777------------------|
D|--5/7-77--777-7--77-777--5-555-9-7-77-77-|
A|--3/5-55--555-5--55-555--5-555-9-7-77-77-|
E|-------------------------3-333-7-5-55-55-|

Special Verse
e|-----------------------------------------|
B|-----------------------------------------|
G|--5/7-77-777-7-77-777--------------------|
D|--5/7-77-777-7-77-777-5-55-555-5-55-555--|
A|--3/5-55-555-5-55-555-5-55-555-5-55-555--|
E|----------------------3-33-333-3-33-333--|

Verse
e|-----------------------------------------|
B|-----------------------------------------|
G|--7-77-777-7-77-777----------------------|
D|--7-77-777-7-77-777--5-55-55--7-77-77----|
A|--5-55-555-5-55-555--5-55-55--7-77-77----|
E|---------------------3-33-33--5-55-55----|

Chorus
Different strumming pattern)
e|-----------------------------------------|
B|-----------------------------------------|
G|-7-77-7-77-777-7-7-----------------------|
D|-7-77-7-77-777-7-7-5-55-5-55-77-77-7-----|
A|-7-77-7-77-777-7-7-5-55-5-55-77-77-7-----|
E|-------------------3-33-3-33-55-55-5-----|

Ending
                             1st time      2nd/3rd time   4th time
e|--------------------|    e|----------| e|-----------| e|-------|
B|--------------------|    B|----------| B|-----------| B|-------|
G|--5/77-777-7-77-777-|    G|-5-xx6-xx-| G|-5xxx-6xxx-| G|-5---6-|
D|--5/77-777-7-77-777-|    D|-5-xx6-xx-| D|-5xxx-6xxx-| D|-5---6-|
A|--3/55-555-5-55-555-|    A|-3-xx4-xx-| A|-3xxx-4xxx-| A|-3---4-|
E|--------------------| x2 E|----------| E|-----------| E|-------|