Misc. Unsigned Bands - Ola Podrida - Day At The Beach Text Guitar Tab

Learn the song with the online tablature player
                           Day at The Beach - Ola Podrida

This song is fingerpicked using a syncopated rythm. In some places the notes
can change a bit (as they do in most fingerpicked songs)so you don't have to
play exactly what is here.

Have fun.

Verse
e|---------------------------------------2-------0-----------0-|
B|-------0---------------0-------------------------------4-----|
G|-----3-------3-------3-------3-------1-----------------------|
D|---4-------4---4---4-------4---4---2---------2-------2-------|
A|-------------------------------------------------------------|
E|-2-------2-------2-------2-------0---------0-------0---------|

Chorus
e|-------4----------2-------------2-0--------4---2---0-|
B|----------4----------2---------------0---------------|
G|-----4------4----------3---------------1-------------|
D|---6------------4--------4---2-----------------------|
A|-----------------------------------------------------|
E|-4------------2------------0-------------------------|

e|-----2--------------4----------7------------2-0------|
B|--------2--------------4----------7--------------0---|
G|----------3-------4------4----------8--------------1-|
D|---4--------4---6------------9--------9---2----------|
A|-----------------------------------------------------|
E|-2------------4------------7------------0------------|

e|-----2-0----------7--------|
B|----------0----------7-----|
G|------------1----------8---|  -> To
D|---2------------9--------9-|  -> Verse
A|---------------------------|
E|-0------------7------------|

| /  slide up
| \  slide down
| h  hammer-on
| p  pull-off
| ~  vibrato
| +  harmonic
| x  Mute note