Misc. Unsigned Bands - Old Skool - Cant You See Text Guitar Tab

Learn the song with the online tablature player
Intro
e|----0-0-------0-0----0-0--------0-0----0-0------0-0------------|
B|--0---------0------0----------0------0--------0----------------|
G|---------------------------------------------------------------|
D|---------------------------------------------------------------|
A|---------------------------------------------------------------|
E|0----------------0-----------------0---------------------------|
(Let E String Ring)

Riff 1
e|99-999--55-555--33-333--22-222---------------------------------|
B|99-999--55-555--33-333--22-222---------------------------------|
G|99-999--55-555--33-333--22-222---------------------------------|
D|99-999--55-555--33-333--22-222---------------------------------|
A|99-999--55-555--33-333--22-222---------------------------------|
E|99-999--55-555--33-333--22-222---------------------------------|
Play 3 Times

Chorus
e|4-6-8-10--10-8-6-4---------------------------------------------|
B|4-6-8-10--10-8-6-4---------------------------------------------|
G|4-6-8-10--10-8-6-4---------------------------------------------|
D|4-6-8-10--10-8-6-4---------------------------------------------|
A|4-6-8-10--10-8-6-4---------------------------------------------|
E|4-6-8-10--10-8-6-4---------------------------------------------|
Play 3 Times and use slide downs and slide ups

Riff 2
e|3333333--5555555--7777777--12121212121212----------------------|
B|3333333--5555555--7777777--12121212121212----------------------|
G|3333333--5555555--7777777--12121212121212----------------------|
D|3333333--5555555--7777777--12121212121212----------------------|
A|3333333--5555555--7777777--12121212121212----------------------|
E|3333333--5555555--7777777--12121212121212----------------------|
Play 3 times

Chorus

Riff 3
e|99-99--55-55--77-77--33-33-------------------------------------|
B|99-99--55-55--77-77--33-33-------------------------------------|
G|99-99--55-55--77-77--33-33-------------------------------------|
D|99-99--55-55--77-77--33-33-------------------------------------|
A|99-99--55-55--77-77--33-33-------------------------------------|
E|99-99--55-55--77-77--33-33-------------------------------------|
Play 4 Times

Chorus

Bridge
e|---------------------------------------------------------------|
B|---------------------------------------------------------------|
G|---------------------------------------------------------------|
D|---------------------------------------------------------------|
A|---------------------------------------------------------------|
E|7--9--12--9----------------------------------------------------|
Play 6 Times

Chorus

Outro
e|---------------------------------------------------------------|
B|---------------------------------------------------------------|
G|---------------------------------------------------------------|
D|---------------------------------------------------------------|
A|---------------------------------------------------------------|
E|-3-2-0--0-0-0--------------------------------------------------|
Play 2 Times (let last note ring)