Misc. Unsigned Bands - Olympose - Looking Away Text Guitar Tab

Learn song with the online tabulature player
INTRO (FINGER PICKING)


---------3------------5--------------8-----------9-------|
2---------------4-------------2-----------15-------------|
---15-----10--------------------1-----------------11-----|
---------------------------------------------------------|
---------------------------------------------------------|
---------------------------------------------------------| X6



VERSE


---------------------------------------------------|
---------------------------------------------------|
---------------------------------------------------|
----3---3---3----3-----------3---------------------|
----3---3---3----3-----------3---------------------|
----3---3---3----3-----------3---------------------|  X5