Misc. Unsigned Bands - On Frail Wings - Vicious Cycle Acoustic Text Guitar Tab

Learn song with the online tabulature player
k, this is my song called vicious cycle, its origanaly supose to be played on an
acoustic, its played at a medium tempo

INTRO
e|-------------------------------------------------------------------------|
B|------------------------------------0--------0---------------------------|
G|----0-----0-----0--2-0-------------0-0------0-0------0-------------------|
D|---2-2---2-2---0-0-----2-0--------2---2----2---2----0-0-2-0--------------|
A|--2-----3-----2------------2-0---2-----2--3-----3--2-------2-0-----------|
E|-0-----0-----3------------------0--------0--------3------------2-0-------|

Verse
e|-------------------------------------------------------------------------|
B|-------------------------------------------------------------------------|
G|-------------------------------------------------------------------------|
D|---0-0-0----4-4-4----4-4-4-----------------------------------------------|
A|--2-2-2-2--2-2-2-2--0-0-0-0----------------------------------------------|
E|-0--------0--------3-----------------------------------------------------|

slow chord progresion
e|-0----0----0----0--------------------------------------------------------|
B|-1-x4-1-x4-1-x4-0-x4-----------------------------------------------------|
G|-2----0----2----0--------------------------------------------------------|
D|-3----2----2----2--------------------------------------------------------|
A|-0----3----0----2--------------------------------------------------------|
E|-0----0----0----0--------------------------------------------------------|

Solo
e|------------------------------0------2------3------5---------------------|
B|-----------------------------0------2------3------5----------------------|
G|----------------------------0------2------3------5-----------------------|
D|-5-4-0--5-4-0-------x2-----0------2------3------5------------------------|
A|---------------2--2-------0------2------3------5-------------------------|
E|---------------0--0------0------2------3------5--------------------------|

Chord and slide solo
e|--------------------------------------------------------------------|
B|--------------------------------------------------------------------|
G|-0~-0~-0~-0~--x2----------------------------------------------------|
D|-2~-2~-2~-0~---------------11v---------------8v---------------------|
A|-2~-3~-2~-2~-----/12-11-12-----12-11--/9-8-9----9-8-----------------|
E|-0~-0~-0~-3~--------------------------------------------------------|

outro
e|------0---------0---------0---------0------2-----------------------------|
B|-----2-2-------2-2-------2-2-------2-2-----4-----------------------------|
G|----0---0-----0---0-----0---0-----0---0----2-----------------------------|
D|---0-----0---0-----0---0-----0---0-----0---2-----------------------------|
A|--2-------2-2-------2-2-------2-2-------2--4-----------------------------|
E|-0---------0---------0---------0---------0-2-----------------------------|

thats it, it lookes alot harder than it is to play, have fun