Misc. Unsigned Bands - On The Way To Infinity - Collecting Stars Text Guitar Tab

Learn the song with the online tablature player
               Collecting Stars - On The Way To Infinity

1st Guitar

e|---------------------------------------------------------------------------|
B|---------------10---------------10---------------10--------------10--------|
G|-----------10---------------10----------------10--------------10-----------|
D|---------------------------------------------------------------------------|
A|-------8---------------------------------------------------8---------------|
E|-----------------------10-----------------8--------------------------------|

e|---------------------------------------------------------------------------|
B|---------------------------------------------------------------------------|
G|-----10--------------------------------------------------------------------|
D|-----10--x14------10-----------77--8-------\-----3-------------------------|
A|-----8------------10--x14------77--8-x14---\-----3-x14---------------------|
E|------------------10-----------77--8-------\-----3-------------------------|

e|---------------------------------------------------------------------------|
B|-------5-----------5-----------3-------------------------------------------|
G|-------4-------------------------------------------------------------------|
D|-------3--x8-------5--x8-------3---x8------3-------------------------------|
A|-------3-----------3-----------1-----------3--x8---------------------------|
E|-------3-----------------------------------3-------------------------------|

2nd Guitar (repeat when full band comes in)

e|---------------------------------------------------------------------------|
B|--------------------------------------------------------10-----------------|
G|------10-------\-----9------/-----10--10------7---------10-----------------|
D|---------x8----\--------x6--/--------------------x8----------x8------------|
A|------8--------\-----7------/-----8---8-------5---------8------------------|
E|---------------------------------------------------------------------------|

| /   slide up
| \   slide down
| h   hammer-on
| p   pull-off
| ~   vibrato
| +   harmonic
| x   Mute note
| b   Bend
| pb  Pre-bend
| br  Bend release
| pbr Pre-bend release
| brb Bend release bend