Misc. Unsigned Bands - One Missing - Rope Of Dreams Text Guitar Tab

Learn the song with the online tablature player
                            ROPE OF DREAMS - One Missing

INTRO

e|-------------------------------------------------------------------------|
B|--7---7-------7---8-----7-------5--------3------3--5--5--3--------3~-----|
G|-------------------------------------------------------------------------|
D|-------------------------------------------------------------------------|
A|-------------------------------------------------------------------------|
E|-------------------------------------------------------------------------|

VERSE

     C
e|-------------------------------------------------------------------------|
B|--7---7-------7---8-----7-------5--------3------3--5--5--3--------3------|
G|-------------------------------------------------------------------------|
D|-------------------------------------------------------------------------|
A|-------------------------------------------------------------------------|
E|-------------------------------------------------------------------------|
   Walking      along     the     rope     of     neverending      dreams,

               C
e|-------------------------------------------------------------------------|
B|-3--5-----7---7------7---8-7---5-----3-----3-----3-5---5----3------3~----|
G|-------------------------------------------------------------------------|
D|-------------------------------------------------------------------------|
A|-------------------------------------------------------------------------|
E|-------------------------------------------------------------------------|
   I  am,   stumbling  on  obsticles   that  are  never  what they  seem.

                  C
e|-------------------------------------------------------------------------|
B|--3--5---7------7-----7----8-7---5---5--3----5------5----3---3-----------|
G|-------------------------------------------------------------------------|
D|-------------------------------------------------------------------------|
A|-------------------------------------------------------------------------|
E|-------------------------------------------------------------------------|
    I  keep  my,  mind  wide  open  and  a love  for  life  inside.

                  C                                              C
e|-------------------------------------------------------------------------|
B|--3--5---7------7-----7----8-7---5---5--3----5------5----3---3-----------|
G|-------------------------------------------------------------------------|
D|-------------------------------------------------------------------------|
A|-------------------------------------------------------------------------|
E|-------------------------------------------------------------------------|
   No  matter,  what  life  throws  at  me  I'm  never  gonna  hide!

| /  slide up
| \  slide down
| h  hammer-on
| p  pull-off
| ~  vibrato
| +  harmonic
| x  Mute note