Misc. Unsigned Bands - One Piece - Binks No Sake Text Guitar Tab

Learn the song with the online tablature player
One Piece - Brook
Binks no Sake
YOHOHOHO!!!

Intro

|----6-6-6---8-6---6--|----6-6-6---8-6------|
|--8-------------8----|--8-------------8----|
|---------------------|------------------8--|                            (x2)
|---------------------|---------------------|
|---------------------|---------------------|
|---------------------|---------------------|

Verse

|--6--------------|--6-----------------------------------------|
|----8-6----------|----8-6------------------------9-8-8-6---6--|
|--------8-5-7-8--|--------8-5-8-----5-8----5-7-8---------8----|
|-----------------|--------------8-------8---------------------|
|-----------------|--------------------------------------------|
|-----------------|--------------------------------------------|
                                                                         (x2)
|--6--------------|--6-----------------------------------------|
|----8-6----------|----8-6------------------------9-8-8-6-6----|
|--------8-5-7-8--|--------8-5-8-----5-8----5-7-8-----------8--|
|-----------------|--------------8-------8---------------------|
|-----------------|--------------------------------------------|
|-----------------|--------------------------------------------|

Complete Song:

Intro
x2)

Verse
x2)
Piano Solo

Verse
x2)

Intro
x2)

Verse
x2)

Intro
x2)
   END
                                                              by uomonero