Misc. Unsigned Bands - Operatic - Interested In Madness Text Guitar Tab

Learn the song with the online tablature player
INTRO
E---------------------------------------------------------------|
B---------------------------------------------------------------|
G---12-12-12---12---12---12---12---12-12-12---12---12---12---12-|
D---------------------------------------------------------------|
A---10-10-10---10---10---10---10---10-10-10---10---10---10---10-|
E---------------------------------------------------------------|

E-------------------------------------------------------------|
B-------------------------------------------------------------|
G---16-16-16---16---16---16---16---16-16-16---16---16---------|
D-------------------------------------------------------------|
A---14-14-14---14---14---14---14---14-14-14---14---14---------|
E-------------------------------------------------------------|

E-------------------------------------------------------------|
B-------------------------------------------------------------|
G---7---14------------12-12-----------------------------------|
D-------------------------------------------------------------|
A---5---12------------10-10-----------------------------------|
E-------------------------------------------------------------|