Misc. Unsigned Bands - Oubliette - Sam Sam Sam Text Guitar Tab

Learn the song with the online tablature player
Intro

e|-------------------------------------------------------------------------------|
B|-------------------------------------------------------------------------------|
G|-99999999---7777----9999 99999999---7777--9------------------------------------|
D|-99999999---7777----9999 99999999---7777--9------------------------------------|
A|-77777777---5555----7777 77777777---5555--7------------------------------------|
E|-------------------------------------------------------------------------------|

Verse

e|-----------------------------------------------------------------------------|
B|-----------------------------------------------------------------------------|
G|---77777777---99999999---77777777---99999999----77777777---99999999----------|
D|---77777777---99999999---77777777---99999999----77777777---99999999----------|
A|---55555555---77777777---55555555---77777777----55555555---77777777----------|
E|-----------------------------------------------------------------------------|

e|------------------------------------------------------------------------------|
B|------------------------------------------------------------------------------|
G|---55555555--7----------------------------------------------------------------|
D|---55555555--7----------------------------------------------------------------|
A|---33333333--5----------------------------------------------------------------|
E|------------------------------------------------------------------------------|

Chorus

e|-------------------------------------------------------------------------------|
B|-------------------------------------------------------------------------------|
G|--99999999---7777----9999 99999999---7777--9-----------------------------------|
D|--99999999---7777----9999 99999999---7777--9-----------------------------------|
A|--77777777---5555----7777 77777777---5555--7-----------------------------------|
E|-------------------------------------------------------------------------------|

song order:

intro
bass only

intro
X2
verse

chorus
x3
verse

chorus
X3

with love to my awsome Oubliette mateys xxxxx

i love you all guys !!!!