Misc. Unsigned Bands - Our Judgment - Misconceptions Text Guitar Tab

Learn the song with the online tablature player
Lead Guitar Tab

Song: Misconceptions
Artist: Our Judgment
Album: TBA

Intro

|-----------------------------------------------------|
|-----------------------------------------------------|
|-----------------------------------------------------|
|-----------------------------------------------------|
|------7-7-----7-7------7-----7--7------7--7------7---|
|---00-8-8--00-8-8---00-8--00-11-11--00-11-11--00-11--|

|---------------------------------------------------------|
|---------------------------------------------------------|
|---------------------------------------------------------|
|------12-12-----12-12-----12------14-14----14-14-----14--|
|------8--8------8--8------8-------8--8-----8--8------8---|
|---00--------00--------00------00-------00--------00-----|

                             (Repeat the intro 3x)

                        (The Alternate picking part)

|-------------------------------------------------------------------------|
|-------------------------------------------------------------------------|
|-------------------------------------------------------------------------|
|-------------------------------------------------------------------------|
|-------7---7-------------7---8-------------7----8----------------7----8--|
|---8-8---8---8-8-8-8-8-8---8---8-8-8-11-11---11---11-11-11-11-11---11--11|

|---------------------------------------------------------------------------|
|---------------------------------------------------------------------------|
|---------------------------------------------------------------------------|
|------------------------------------------12-----------------------12------|
|------------8----12----------------12-----------------------8--------------|
|11-11-12-12---12----12-12-12-12-12----12-----12-12-12-12-12----12-----12-12|

|------------------------------|
|------------------------------|
|------------------------------|
|-----------------12-----------|
|----------12------------------|
|-12-12-12----12-----12-12-12--|     (Repeat 3x)

|-------------------|---------------------------------------------------|
|-------------------|---------------------------------------------------|
|-------------------|---------------------------------------------------|
|-000000--0000------|----0--000--0---0--000-0---0--000--0--0--000--0----|
|-000000--0000--(8x)|----0--000--0---0--000-0---0--000--0--0--000--0----|
|-000000--0000------|----0--000--0---0--000-0---0--000--0--0--000--0----|
   (PM whole Break down)..... and this part..!

|----------------------------------------------------------------------|
|----------------------------------------------------------------------|
|----------------------------------------------------------------------|
|--------------------------7p5-----------------------------8p5h7p5-----|
|------8p5h7p5-----8p5h7p5-----7p5----8p5h7h5-----8p5h7h5--------------|
|---00----------00-----------------00---------00-----------------------|

|----------------------------------------------------------------------|
|----------------------------------------------------------------------|
|----------------------------------------------------------------------|
|--------------------------7p5-----------------------------8p5h7p5^----|
|------8p5h7p5-----8p5h7p5-----7p5----8p5h7h5-----8p5h7h5--------------|
|---00----------00-----------------00---------00--------------------(2x)

|-----------------------------------------------------------|
|-----------------------------------------------------------|
|-----------------------------------------------------------|
|--00--00-00--00--00--00------------------------7p5---------|
|--00--00-00--00--00--00-----8p5h7p5----8p5h7h5-----7p5-----|
|--00--00-00--00--00--00--00---------00---------------------|

|------------------------------------------------|
|------------------------------------------------|
|------------------------------------------------|
|--00--00-00--00--00--00-------------8p5h7p5-----|
|--00--00-00--00--00--00-----8p5h7h5-------------|
|--00--00-00--00--00--00--00---------------------|

|---------------------|-------------------------|--------------|
|---------------------|-------------------------|--------------|
|---------------------|-------------------------|--------------|
|--00--00--00--00-00-0|---00-00-00--00-00-00----|-0-0-0--------|
|--00--00--00--00-00-0|---00-00-00--00-00-00----|-0-0-0--------|
|--00--00--00--00-00-0|---00-00-00--00-00-00-(4x|-0-0-0-00-00--|
      (Heavy ** Part)            (Staccato)

                   (The Alternate picking part again)
|-------------------------------------------------------------------------|
|-------------------------------------------------------------------------|
|-------------------------------------------------------------------------|
|-------------------------------------------------------------------------|
|-------7---7-------------7---8-------------7----8----------------7----8--|
|---8-8---8---8-8-8-8-8-8---8---8-8-8-11-11---11---11-11-11-11-11---11--11|
pm
|---------------------------------------------------------------------------|
|---------------------------------------------------------------------------|
|---------------------------------------------------------------------------|
|------------------------------------------12-----------------------12------|
|------------8----12----------------12-----------------------8--------------|
|11-11-12-12---12----12-12-12-12-12----12-----12-12-12-12-12----12-----12-12|

|------------------------------|
|------------------------------|
|------------------------------|
|-----------------12-----------|
|----------12------------------|
|-12-12-12----12-----12-12-12--|(3x)

|---------------------------------------------------|
|---------------------------------------------------|
|---------------------------------------------------|
|----0--000--0---0--000-0---0--000--0--0--000--0----|
|----0--000--0---0--000-0---0--000--0--0--000--0----|
|----0--000--0---0--000-0---0--000--0--0--000--0----|

                       (Sweep picking part)
|--------------13h17p13------------------------13h17p13------------|
|------------15--------15--------------------15--------15----------|
|----------14------------14----------------14------------14--------|
|--------15----------------15------------15----------------15------|
|---12h17--------------------17p12--12h17--------------------17p12-|
|------------------------------------------------------------------|

|------------------------------------------------------------------|
|------------13h17p13--------------------13h17p13------------------|
|----------14--------14----------------14--------14----------------|
|--------15------------15------------15------------15--------------|
|---12h15----------------15p12--12h15----------------15p12---------|
|------------------------------------------------------------------|

|------------------------------------------------------------------|
|------------11h15p11--------------------11h15p11------------------|
|----------12--------12----------------12--------12----------------|
|--------13------------13------------13------------13--------------|
|---10h13----------------13p10--10h13----------------13p10---------|
|------------------------------------------------------------------|

|------------------------------------------------------------------|
|------------13h17p13--------------------13h17p13------------------|
|----------14--------14----------------14--------14----------------|
|--------15------------15------------15------------15--------------|
|---12h15----------------15p12--12h15----------------15p12---------|
|------------------------------------------------------------------|

|--------------13h17p13------------------------13h17p13------------|
|------------15--------15--------------------15--------15----------|
|----------14------------14----------------14------------14--------|
|--------15----------------15------------15----------------15------|
|---12h17--------------------17p12--12h17--------------------17p12-|
|------------------------------------------------------------------|

|------------------------------------------------------------------|
|------------13h17p13--------------------13h17p13------------------|
|----------14--------14----------------14--------14----------------|
|--------15------------15------------15------------15--------------|
|---12h15----------------15p12--12h15----------------15p12---------|
|------------------------------------------------------------------|

|------------------------------------------------------------------|
|------------11h15p11--------------------11h15p11------------------|
|----------12--------12----------------12--------12----------------|
|--------13------------13------------13------------13--------------|
|---10h13----------------13p10--10h13----------------13p10---------|
|------------------------------------------------------------------|

|------------------------------------------------------------------|
|------------13h17p13--------------------13h17p13------------------|
|----------14--------14----------------14--------14----------------|
|--------15------------15------------15------------15--------------|
|---12h15----------------15p12--12h15----------------15p12---------|
|------------------------------------------------------------------|

|----------------------------------------------------|
|----------------------------------------------------|
|----------------------------------------------------|
|----0--000--0---0--000-0---0--000--0--0--000--0--0--|
|----0--000--0---0--000-0---0--000--0--0--000--0--0--|
|----0--000--0---0--000-0---0--000--0--0--000--0--0--| End

                                                  (ENJOY)