Misc. Unsigned Bands - Our Last Day - Demo Text Guitar Tab

Learn the song with the online tablature player
Our Last Day, Demo CD

1. It Takes Time
2. A day without you
3. why "intro"
4. Someday "intro"

1. It takes time

x=palm Mute/strum

Intro/verse/bridge
[--------------------------------------------]
[--------------------------------------------]
[--------------------------------------------]   X6
[-----8-8-8888-8-8-8888-8-8-8888-8-8-8888----]
[-----7-7-7777---xxxxx--7-7-7777---xxxxx-----]
[--------------7-7-7777---xxxxx--7-7-7777----]

Chourus
[--------------------------xxxx--------]
[--------------------------xxxx--------]
[--------------------------xxxx--------]
[--------------------------xxxx--------] X3
[-9-9-99999-8-88-7-7-77777-xxxx--------]
[-8-8-88888-7-77-6-6-66666-xxxx--------]

next:Intro/verse/bridge

next:Chourus

2.A day without you

x=palm Mute/strum

Intro

[------------------------------------------------------------------xxx-]
[-9999999-777-555-9999999-777-555----------------------------------xxx-]
[---------------------------------8888888-777-666-8888888-777-666--xxx-]
[------------------------------------------------------------------xxx-] X4
[------------------------------------------------------------------xxx-]
[------------------------------------------------------------------xxx-]

Verse

[-------------------]
[-------------------]
[--9-9-9-999-9999---] X3
[--xxxxxxxxxxxxxx---]
[--8-8-8-888-8888---]
[--7-7-7-777-7777---]

Chourus
[--------xx------]
[--------xx------]
[--------xx------] x3
[--------xx------]
[-9-9-999999-----]
[-7-7-777777-----]

Next: Verse

Next: Chourus

Next: Verse

Next: Chourus

Ending
[------------------]
[------------------]
[------------------]
[-9-99-999-99-6-7--]
[-7-77-878-777-67--]
[--------------89--]

3.why "intro"

x= Palm Mute/Strum
h= Hard Strum

[--------------------------------------------------------xxxxxxxx-xxx-xxxxx]
[---8--8--8--8--8--8--8--8--9--9--9--9--8--8--8--8--8----xxxxxxxx-xxx-xxxxx]
[-77-77-77-77-77-77-77-77-88-88-88-88-77-77-77-77-77-----xxxxxxxx-xxx-xxxxx]
[--------------------------------------------------------xxxxxxxx-xxx-xxxxx]
[--------------------------------------------------------xxxxxxxx-xxx-xxxxx]
[--------------------------------------------------------xxxxxxxx-xxx-xxxxx]

[-------------------------------------------xx-----------------------------]
[-------------------------------------------xx-----------------------------]
[-99999999999999-999999999999999------------xx-----------------------------]
[-88888888888888-888888888888888-------------------------------------------]
[----------------------------------999999-888-h7h7h7h7-999999-999-h7h7h7h7-]
[----------------------------------777777-666-h5h5h5h5-777777-666-h5h5h5h5-

4. someday "intro"

x=palm mute/strum

[-xx--------------------x--]
[-xx--------------------x--]
[-xx--------------------x--]   X4
[-xx--------------------x--]
[-xx7-000000-7-00-8-00-7x--]
[-xx7-000000-7-00-8-00-7x--]

[-----------------]
[-----------------]
[-----------------]    X2
[-----------------]
[-9-9-999888-7777-]
[-7-7-777666-5555-]