Misc. Unsigned Bands - Our Last Day - What It Feels Like Text Guitar Tab

Learn the song with the online tablature player
THIS BAND IS NO LONGER A GROUP...THEY BROKE UP..WE ARE NOW UNKNOWN VICTORY, SEARCH FOR THEM

x = palm mute/strum
~ = vibrato
T = Quick Transfer

Intro
|-222-222-222-222-2222--|
|-222-222-222-222-2222--|
|-111-111-111-111-1111--|  X4
|-111-111-111-111-1111--|
|-----------------------|
|-----------------------|

Verse 1
|------------------|
|------------------|
|------------------|
|------------------| X2
|-7xx-6xx-7xx-6xxT~|
|-9xx-8xx-9xx-8xxT~|

Chourus:
|-------------------------------|
|-------------------------------|
|-------------------------------|
|-------------------------------|X4
|-99-9999-99-999-77-7777-77-777-|
|-77-7777-77-777-55-5555-55-555-|

Verse 2
|-------------------|
|-------------------|
|-------------------| X4
|-------------------|
|-7xx-6xx-7xx-6xxT~-|
|-9xx-8xx-9xx-8xxT~-|

Verse 2
second Guitar):
|--------------------|
|--------------------|
|---4-4-5----4-4-5---|
|-44-4-4-5-44-4-4-5T-| X4
|--------------------|
|--------------------|

Chourus:
|-------------------------------|
|-------------------------------|
|-------------------------------|
|-------------------------------|X4
|-99-9999-99-999-77-7777-77-777-|
|-77-7777-77-777-55-5555-55-555-|

Verse 3
|-------------------|
|-------------------|
|-------------------|X4
|-9-9999-7-777-6666-|
|-------------------|
|-------------------|

Verse 4
|-------------------------------|
|-66666666666666-55555555555555-|
|-66666666666666-55555555555555-| X2
|-55555555555555-44444444444444-|
|-------------------------------|
|-------------------------------|

Chourus:
|-------------------------------|
|-------------------------------|
|-------------------------------|
|-------------------------------|X4
|-99-9999-99-999-77-7777-77-777-|
|-77-7777-77-777-55-5555-55-555-|

Ending
|----------------------xx-|
|----------------------xx-|
|---4-4-5----4-4-5-----xx-|
|-44-4-4-5-44-4-4-5T---xx-|
|--------------------7-xx-|
|----------------------xx-|