Misc. Unsigned Bands - Out Of Control - Teacher Text Guitar Tab

Learn the song with the online tablature player
Band: Out Of Control
Song: Teacher

/: Slide up

Intro
e|-----------------------------------------------------------------|
b|-----------------------------------------------------------------|
g|------9----------------------------------------------------------|
d|----9----------11-------7--------9-------------------------------|
a|--7----------11-------7--------9---------------------------------|
E|---------7/9------7-5------5-7-----------------------------------| x2

Verse
e|-----------------------------------------------------------------|
b|-----------------------------------------------------------------|
g|-9--9--9---------------------------------------------------------|
d|-9--9--9--9--11-11-11-11-7--7--7--7--9--9--9--9------------------|
a|-7--7--7--9--11-11-11-11-7--7--7--7--9--9--9--9------------------|
E|----------7--9--9--9--9--5--5--5--5--7--7--7--7------------------| x4

Chorus
e|-----------------------------------------------------------------|
b|-----------------------------------------------------------------|
g|---------9-9-9-9-------------------------------------------------|
d|-7-7-7-7-9-9-9-9-9-9-9-9-11-11-11-11-----------------------------|
a|-7-7-7-7-7-7-7-7-9-9-9-9-11-11-11-11-----------------------------|
E|-5-5-5-5---------7-7-7-7-9--9--9--9------------------------------| x2

Verse
e|-----------------------------------------------------------------|
b|-----------------------------------------------------------------|
g|-9--9--9---------------------------------------------------------|
d|-9--9--9--9--11-11-11-11-7--7--7--7--9--9--9--9------------------|
a|-7--7--7--9--11-11-11-11-7--7--7--7--9--9--9--9------------------|
E|----------7--9--9--9--9--5--5--5--5--7--7--7--7------------------| x4

Chorus
e|-----------------------------------------------------------------|
b|-----------------------------------------------------------------|
g|---------9-9-9-9-----------------------------9-9-9-9-------------|
d|-7-7-7-7-9-9-9-9-9-9-9-9-11-11-11-11-7-7-7-7-9-9-9-9-9-9-9-10-11-|
a|-7-7-7-7-7-7-7-7-9-9-9-9-11-11-11-11-7-7-7-7-7-7-7-7-9-9-9-10-11-|
E|-5-5-5-5---------7-7-7-7-9--9--9--9--5-5-5-5---------7-7-7-8--9--|

Verse
e|-----------------------------------------------------------------|
b|-----------------------------------------------------------------|
g|-9--9--9---------------------------------------------------------|
d|-9--9--9--9--11-11-11-11-7--7--7--7--9--9--9--9------------------|
a|-7--7--7--9--11-11-11-11-7--7--7--7--9--9--9--9------------------|
E|----------7--9--9--9--9--5--5--5--5--7--7--7--7------------------| x4