Misc. Unsigned Bands - Out Of Order - 619 Text Guitar Tab

Learn song with the online tabulature player
The solo from the song 619


|---------------46--------------|
|---------65-996----------------| Repeat 3 times
|-----77h6----------------------|
|---6---------------------------|
|--7b---------------------------|
|-------------------------------|
Then
|----22-987r02------------------|
|--------------2345-------------|
|-------------------------------|
|--------- -------6745----------|
|--------------------7----------|
|-------------------------------|