Misc. Unsigned Bands - Outrun The Gun - A Formal Feeling Text Guitar Tab

Learn song with the online tabulature player
Drop C
11's not 1's and ~ means bend
--xxxxxxxxxxxxxxxxxxxxxxxxxxxxxxxxxxxxxxxxxxxxxxxxxxxxxxxxxxxxxxxxxxxxxxxx--|
--777777777777777777777777777777777777777777777777777777777777777711111111--|
--888888888888888888888888888888888888888888888888888888888888888888888888--|
--999999999999999999999999999999999999999999999999999999999999999999999999--|
--000000000000000000000000000000000000000000000000000000000000000000000000--|
--xxxxxxxxxxxxxxxxxxxxxxxxxxxxxxxxxxxxxxxxxxxxxxxxxxxxxxxxxxxxxxxxxxxxxxxx--|

-------------------------------|
---------7---------------------|
---------10~-------------------|(x8)
-0000-00-----0000-00-----------|
-0000-00-----0000-00--12p0-7/8-|
-0000-00-----0000-00-----------|

-------------------------------|
-------------------------------|
-8888888888888888888888888-----|
-xxxxxxxxxxxxxxxxxxxxxxxxx-----|
-10101010101010101010101010----|
-------------------------------|