Misc. Unsigned Bands - Overdrive 75 - Untitled 1 Text Guitar Tab

Learn the song with the online tablature player
Ok this is my band we have just come about and we are recording an album this is the first song off it

intro 1
guitar 1: Danny   x 4 (fast plucking)
e------------------------------------------------------------------------|
B------------------------------------------------------------------------|
G-----------------------------------------24-------24------24------24----|
D-------24------24------24------24------24--24---24--24--24--24--24--24--|
A-----24--24--24--24--24--24--24--24--22-------22------22------22--------|
E---22------22------22------22-------------------------------------------|

Intro 2
guitar 1: Danny

e---------------------------------------------------|
B---------------------------------------------------|
G-9999999999 7777777777 5555555555------------------|
D-9999999999 7777777777 5555555555-555xxxxxx777xxxxxx
A-7777777777 5555555555 3333333333-555xxxxxx777xxxxxx
E---------..---------..---------..-333xxxxxx555xxxxxx       x2

guitar 2: Tom

e----------------------------------------------------------|
B----------------------------------------------------------|
G-9999999999/7777777777/5555555555-------------------------|
D-xxxxxxxxxx xxxxxxxxxx xxxxxxxxxx-3333333-5555555---------|
A-7777777777/5555555555/3333333333-xxxxxxx-xxxxxxx---------|        x2
E----------------------------------1111111-3333333---------|
                                    ......  ......
intro 3 x2

guitar 1: Danny

e----------------------------------------------------------------------------|
B----------------------------------------------------------------------------|
G-9xx9-7h9br7-----------7xx7-5h7br5-----------5xx5-3h5br3--------------------|
D-9xx9-------97---------7xx7-------75---------5xx5-------53------3xxxxx5xxxx-|
A-7xx7-------..7h9p7~---5xx5-------..5h7p5~---3xx3-------..3h5p3-3xxxxx5xxxx-|
E----------------------------------------------------------------1xxxxx3xxxx-|

guitar 2: Tom x2

e------------------------------------------------|
B------------------------------------------------|
G-9xx9xx9xx9xx7xx7xx7xx7xx5xx5xx5xx5xx-----------|
D-xxxxxxxxxxxxxxxxxxxxxxxxxxxxxxxxxxxx-3xx3xx5xx5
A-7xx7xx7xx7xx5xx5xx5xx5xx3xx3xx3xx3xx-xxxxxxxxxx
E--------------------------------------1xx1xx3xx3

verses guitars 1 & 2:Danny & Tom x2

e---------------------------------------------------------------------|
B---------------------------------------------------------------------|
G-9999999111111117777--777777799995555--555555577773333---------------|
D-9999999111111117777--777777799995555--5555555777733333xxxxxx5xxxxxx-|
A-77777779 9 9  95555--555555577773333--3333333555511113xxxxxx5xxxxxx-|
E--....... . .  .....---..............---..............1xxxxxx3xxxxxx-|

Chorus guitar 1: Danny

e-----------------------------------|
B-----------------------------------|
G-999911117777779955555577----------|
D-9999 9 955555577333333555555577777
A-7777 9 955555577333333555555577777
E-------------------------3333355555
                           .... ....

Chorus guitar 2: Tom

e------------------------------------------|
B------------------------------------------|
G-9999/11/11/777777/99/555555/77-----------|
D-xxxx x  x  xxxxxx xx xxxxxx xx55555577777
A-7777/9 /9 /555555/77/333333/55xxxxxxxxxxx
E-------------------------------33333555555
                                 .... .....

Bridge guitars 1 and 2: Danny & Tom x2 (also outro)

e---------------------------------------------------------------|
B---------------------------------------------------------------|
G-5xx5xx5xx5xx7xx7xx7xx7xx9 xx9 xx9 xx9 xx1010101010101010xxxxxx
D-7xx7xx7xx7xx9xx9xx9xx9xx11xx11xx11xx11xx1212121212121212xxxxxx
A-7xx7xx7xx7xx9xx9xx9xx9xx11xx11xx11xx11xx1212121212121212xxxxxx
E-5xx5xx5xx5xx7xx7xx7xx7xx9 xx9 xx9 xx9 xx1010101010101010xxxxxx

solo guitar 1: Danny (guitar 2 carries on with previous riff)

fast strumming

e----------------------------------------------------------|
B----------------------------------------------------------|
G-1717171717171717141414141414141412121212121212129999-----|       x 2
D-x  x x x x x x x x x x x x x x x x x x x x x x xxxxx9999
A-1515151515151515121212121212121210101010101010107777xxxx
E-----------------------------------------------------7777

(then)

e----------------------------------------------------------------------------|
B-------------------------------12p0-14p0-15p0-14p0-12p0---------------------|
G-12h14b12h14b12h14b12h14b12h14br------------------------12h14b12h14b12h14br-|
D----------------------------------------------------------------------------|
A----------------------------------------------------------------------------|
E----------------------------------------------------------------------------|

e-----------------------------------|         x2
B-12p0-14p0-15p0-14p0-12p0----------|
G-----------------------------------|
D-----------------------------------|
A-----------------------------------|
E-----------------------------------|

then bass solo
Mark (tabbed for guitar) repeat untill choru kicks in

G------------------------------------------------------------|
D------------------------------------------------------------|
A-------------------------------222022202220222244575p44h524-|
E---222022202220222244575p44h524-----------------------------|

End chord:

e---
B---
G--9~
D--9~
A--7~
E---

order:

Intro 1
Intro 2
Intro 3
Verse
intro 3
verse
chorus
intro 3
chorus
bridge
solo
chorus

bridge
outro)
end chord