Misc. Unsigned Bands - Overload - Let It Go Text Guitar Tab

Learn song with the online tabulature player
the tab is 100% perfect because i wrote the song lol

e]---------4-----4---4-----2-----2---2-----5-----5---5-----0-----0---0-|
B]-----0-0---0-0---0---0-0---0-0---0---0-0---0-0---0---0-0---0-0---0---|
G]---------------------------------------------------------------------| X 2
D]---------------------------------------------------------------------|
A]---------------------------------------------------------------------|
E]---------------------------------------------------------------------|

e]---------0-----0---------4---5-----2---4-----4---5-----2---0---------|
B]-----2-2---2-2---2-1---0---0-----0---0-----0---0-----0---0-----------|
G]---------------------------------------------------------------------|
D]---------------------------------------------------------------------|
A]---------------------------------------------------------------------|
E]---------------------------------------------------------------------|

They said 'quit, give up, nobody wants to know,'
They said 'stop, wake up, your livin a dream, your not gonna make
The show, Whohoho let it go'