Misc. Unsigned Bands - Overload - Rocking Waves Text Guitar Tab

Learn song with the online tabulature player
OVERLOAD-ROCKING WAVES

1st riff

e|--------|--------|--------|---------|
B|--------|--------|--------|---------|
G|-0-0-5-7|-0-0-5-3|-0-0-5-7|-0-0-5-3-|
D|-0-0-5-7|-0-0-5-3|-0-0-5-7|-0-0-5-3-|
A|--------|--------|--------|---------|
E|--------|--------|--------|---------|

2nd riff

e|-----5------5---|-----7------7-|
B|-5-5---5--5---5-|-5-5---5--5---|
G|----------------|--------------|
D|----------------|--------------|
A|----------------|--------------|
E|----------------|--------------|