Misc. Unsigned Bands - Page 44 - We Know The Way Text Guitar Tab

Learn song with the online tabulature player
e|-----------------------------------------------------| 
b|-----------------------------------------------------| 
g|----------2-2-------------------------3-3-x-x--------| >> 6x 
d|----------2-2-----------3-3-----------5-5-x-x---5-5--| 
a|--3-2-0---0-0---3-2-0---3-3---3-2-0---5-5-x-x---5-5--| 
e|--------3-------------3-1-1---------3-----------3-3--| 
 

e|-------------------------------------| 
b|-1-0-1-3-1-0-1----1-1-0--1-1-3--1-0---| 
g|---------------0--------------------2~| >> 4x 
d|--------------------------------------| 
a|--------------------------------------| 
e|--------------------------------------| 
 

e|-----------------------------------------------------| 
b|-----------------------------------------------------| 
g|----------2-2-------------------------3-3-x-x--------| >> 8x 
d|----------2-2-----------3-3-----------5-5-x-x---5-5--| 
a|--3-2-0---0-0---3-2-0---3-3---3-2-0---5-5-x-x---5-5--| 
e|--------3-------------3-1-1---------3-----------3-3--| 
 

e|----------------------------| 
b|----------------------------| 
g|-------------5-5-x-x--------| >> 4x 
d|-7-7---3-3---5-5-x-x---5-5--| 
a|-7-7---3-3---3-3-x-x---5-5--| 
e|-5-5---1-1-------------3-3--| 
 
 
e|-------||-------------------------| 
b|-------||-------------------------| 
g|-------||---------5-5-------------| >> 4x 
d|-5~~---||---7-7---5-5---5-5...----| 
a|-5~~---||---7-7---3-3---5-5...----| 
e|-3~~---||---5-5---------3-3...----| 
 

e|-----------------------------------------------------| 
b|-----------------------------------------------------| 
g|----------2-2-------------------------3-3-x-x--------| >> 4x 
d|----------2-2-----------3-3-----------5-5-x-x---5-5--| 
a|--3-2-0---0-0---3-2-0---3-3---3-2-0---5-5-x-x---5-5--| 
e|--------3-------------3-1-1---------3-----------3-3--| 
 

e|-------0------------------------------| 
b|-1-0-1---1-0-1----1-1-0--1-1-3--1-0---| 
g|---------------0--------------------2~| >> 4x 
d|--------------------------------------| 
a|--------------------------------------| 
e|--------------------------------------| 
 
 
e|-----------------------------------------------------| 
b|-----------------------------------------------------| 
g|----------2-2-------------------------3-3-x-x--------| >> 8x 
d|----------2-2-----------3-3-----------5-5-x-x---5-5--| 
a|--3-2-0---0-0---3-2-0---3-3---3-2-0---5-5-x-x---5-5--| 
e|--------3-------------3-1-1---------3-----------3-3--| 
 
e|----------------------------| 
b|----------------------------| 
g|-------------5-5-x-x--------| >> 8x 
d|-7-7---3-3---5-5-x-x---5-5--| 
a|-7-7---3-3---3-3-x-x---5-5--| 
e|-5-5---1-1-------------3-3--| 
 

e|-------||-------------------------| 
b|-------||-------------------------| 
g|-------||---------5-5-------------| >> 4x 
d|-5~~---||---7-7---5-5---5-5...----| 
a|-5~~---||---7-7---3-3---5-5...----| 
e|-3~~---||---5-5---------3-3...----| 
 

e|-----------------------------| 
b|-----------------------------|  
g|-----------5~----------------| >> 4x 
d|---7-7-x---5~----7-7-x---5~--|  
a|---7-7-x---3~----7-7-x---5~--|  
e|---5-5-x---------5-5-x---3~--|  
 
 

e|-------||-------------------------| 
b|-------||-------------------------| 
g|-------||---------5-5-------------| >> 4x 
d|-5~~---||---7-7---5-5---5-5...----| 
a|-5~~---||---7-7---3-3---5-5...----| 
e|-3~~---||---5-5---------3-3...----| 
 
 

e|-----------------------------------------------------| 
b|-----------------------------------------------------| 
g|----------2-2-------------------------3-3-x-x--------| >> 4x 
d|----------2-2-----------3-3-----------5-5-x-x---5-5--| 
a|--3-2-0---0-0---3-2-0---3-3---3-2-0---5-5-x-x---5-5--| 
e|--------3-------------3-1-1---------3-----------3-3--| 
 

e|----------------------------| 
b|----------------------------| 
g|-------------5-5-x-x--------| >> 4x 
d|-7-7---3-3---5-5-x-x---5-5--| 
a|-7-7---3-3---3-3-x-x---5-5--| 
e|-5-5---1-1-------------3-3--| 

d||5~~----| 
a||5~~----|  
e||5~~----| 



 
e||------------------------| 
b||------------------------| 
g||----------5-5-x---------| >> 4x 
d||---7-7 x--5-5-x?-5~~----| 
a||---7-7-x--3-3-x--5~~----| 
e||---5-5-x---------5~~----|