Misc. Unsigned Bands - Painted South - Hero Text Guitar Tab

Learn the song with the online tablature player
Intro

e|---3------------------------------------------------------------------------|
B|---3------------------------------------------------------------------------|
G|---0------------------------------------------------------------------------|
D|---0-------------------------------------0----3----0----0--3--0-----0--3----|
A|---3----------------------0----3----0----------------------------3----------|
E|---3-------0----3----0------------------------------------------------------|

e|-----------------------------------------03030303030303030303030303030303---|
B|----------------------------------------------------------------------------|
G|----------------------------------------------------------------------------|
D|--0--0--0--0--------------0--3b-p0------------------------------------------|
A|-------------------0--3-----------------------------------------------------|
E|-------------0--3-----------------------------------------------------------|

e|0303030303030303030303030303030303030303030303030303030303030303030303030---|
B|----------------------------------------------------------------------------|
G|----------------------------------------------------------------------------|
D|----------------------------------------------------------------------------|
A|----------------------------------------------------------------------------|
E|----------------------------------------------------------------------------|

Verse 1
G    C       D
they all are gone
G         E         D
but their still with me
G      C          D
hit me with their blindness
G       E          D
and now i can not see

Verse 2
G       C             D
we will fly where the oceans
G         E          D
oh. where the oceans meet
G       C             D
we will fall with our heros
G         E           D
but we'll land on our feet

Chorus
    G   E    A         D
and my hero saved my life
G  E  A  C
so many times
    G   E    A         D
and my hero saved my life
G             D         Bm
it's not even funny any more
G             D         C
it's not even funny any more
G             D         E
it's not even funny any more

Solo
(15, 18)
e|---1518151815181518151815181518151815181518151815181518151815181518151815---|
B|----------------------------------------------------------------------------|
G|----------------------------------------------------------------------------|
D|----------------------------------------------------------------------------|
A|----------------------------------------------------------------------------|
E|----------------------------------------------------------------------------|

e|-181518151815181518151815181518151815181518151815181518151815181518151815---|
B|----------------------------------------------------------------------------|
G|----------------------------------------------------------------------------|
D|----------------------------------------------------------------------------|
A|----------------------------------------------------------------------------|
E|----------------------------------------------------------------------------|

e|-18151815181518151815181518151815181518-------------------------------------|
B|------------------------------------------15---17---------------------------|
G|----------------------------------------------------15---17b----------------|
D|---------------------------------------------------------------15b---17b----|
A|----------------------------------------------------------------------------|
E|----------------------------------------------------------------------------|

e|-15---18---15---------------------------------------------------------------|
B|----------------18---15-----------------------------------------------------|
G|--------------------------17---15b------------------------------------------|
D|----------------------------------------------------------------------------|
A|----------------------------------------------------------------------------|
E|----------------------------------------------------------------------------|

Chorus

Verse 3
G        C              D
now that all are gone i feel
G        E               D
its time for me to leave to
G             C               D
and even if i end up in some forest
G    E          D
i'll still have you

Chorus
X2

| /  slide up
| \  slide down
| h  hammer-on
| p  pull-off
| ~  vibrato
| +  harmonic
| x  Mute note