Misc. Unsigned Bands - Pans Labyrinth - Lullaby Text Guitar Tab

Learn song with the online tabulature player
The theme song of the movie "Pans Labyrinth"

Standard Tuning

EADGBe

e|----------------------------------------------------|
B|----------------------------------------------------|
G|---8-------------8--9--8----------------------------|
D|------11--9--11-------------------------------------|
A|----------------------------------------------------|
E|----------------------------------------------------|

e|----------------------------------------------------|
B|----------------------------------------------------|
G|---8-------------8--9--6----------------------------|
D|------11--9--11-------------------------------------|
A|----------------------------------------------------|
E|----------------------------------------------------|

e|----------------------------------------------------|
B|----------------------------------------------------|
G|---6-----------6--8--6--8--9--11--8-----------------|
D|------9--8--9---------------------------------------|
A|----------------------------------------------------|
E|----------------------------------------------------|