Misc. Unsigned Bands - Party On - Blood On The Dance Floor Text Guitar Tab

Learn the song with the online tablature player
Party On - Blood On The Dance Floor
There isn't much to the song. This is really the only main part that everyone wants.

e|---------------------------------------------------------------------------|
B|---------------------------------------------------------------------------|
G|--11----11----11----11----9----9----9----9---------------------------------|
D|-----9-----9-----9-----9----9----9----9----9-------------------------------|
A|---------------------------------------------------------------------------|
E|---------------------------------------------------------------------------|

e|---------------------------------------------------------------------------|
B|---------------------------------------------------------------------------|
G|--8----8----8----8----6----6----6--8--6--4---------------------------------|
D|----9----9----9----9----9----9---------------------------------------------|
A|---------------------------------------------------------------------------|
E|---------------------------------------------------------------------------|

| /   slide up
| \   slide down
| h   hammer-on
| p   pull-off
| ~   vibrato
| +   harmonic
| x   Mute note
| b   Bend
| pb  Pre-bend
| br  Bend release
| pbr Pre-bend release
| brb Bend release bend