Misc. Unsigned Bands - Patrice Michaud - On Fait Comme Si Text Guitar Tab

Learn the song with the online tablature player
Intro

e |------------------------------------------------------------|
B |------------------------------------------------------------|
G |-----------4----------4-----4-------------------------------|
D |---4-----------4---5/8----7----7--4-------------------------|
A |-------4----------------------------7----7--4---4--6--4--2--|
E |-4---4---4---4------------------------4---------------------|

Verse 1

e |------------------------------------------------------------|
B |------------------------------------------------------------|
G |-----------4----------4-----4-------------------------------| (x3)
D |---4-----------4---5/8----7----7--4-------------------------|
A |-------4----------------------------7----7--4---4--6--4--2--|
E |-4---4---4---4------------------------4---------------------|

On fait comme si
Ton coeur échappé au fond de mon char,
reviens-tu demain le reprendre ?
Le mien t’a suivi le long du trottoir,
tu l’as dans tes mains.
Je sais que tu sais que c'est pas mon char,
tant pis, ça fait rien. Tu m'as dit :

Pre -Chorus

e |--------------------------------------------|
B |--------------------------------------------|
G |--------------------------------------------|
D |--------------------------------------------|
A |-4--6--4--2-----------4--6--4--2------------|
E |-------------4--6--7--------------4--6--11--|

On fait comme si c'était vrai,
comme si on avait la paix.
On fait comme si

Chorus

e |------------------------------------------------------------|
B |------------------------------------------------------------|
G |-----------4----------4-----4-------------------------------| (x1)
D |---4-----------4---5/8----7----7--4-------------------------|
A |-------4----------------------------7----7--4---4--6--4--2--|
E |-4---4---4---4------------------------4---------------------|

On fait comme si.

Verse 2

e |------------------------------------------------------------|
B |------------------------------------------------------------|
G |-----------4----------4-----4-------------------------------| (x3)
D |---4-----------4---5/8----7----7--4-------------------------|
A |-------4----------------------------7----7--4---4--6--4--2--|
E |-4---4---4---4------------------------4---------------------|

Des heures empruntées à ton père
qui te veut dans la cuisine au réveil.
Va pas croire que je finirai comme lui,
puncher à l’usine.
Je t'emmènerai loin de ton quartier
d'maisons toutes pareilles. Tu m'as dit :

Pre - Chorus

e |--------------------------------------------|
B |--------------------------------------------|
G |--------------------------------------------|
D |--------------------------------------------|
A |-4--6--4--2-----------4--6--4--2------------|
E |-------------4--6--7--------------4--6--11--|

on fait comme si c'était vrai,
comme si on avait la paix.
On fait comme si

Chorus

e |------------------------------------------------------------|
B |------------------------------------------------------------|
G |-----------4----------4-----4-------------------------------| (x2)
D |---4-----------4---5/8----7----7--4-------------------------|
A |-------4----------------------------7----7--4---4--6--4--2--|
E |-4---4---4---4------------------------4---------------------|

On fait comme si.

Bridge

e |-x----x---x--------------|
B |-x----x---x--------------|
G |-8----7---x--------------|
D |-9----9---9--------------|
A |-9----9---9---4--6--4--2-|
E |-7----7---6--------------|

T'as quitté ton chandail sans trop savoir,
je n’ai pas eu peur.

e |-x----x----2--------|
B |-x----x----2--------|
G |-8----7----3--------|
D |-9----9----4--------|
A |-9----9----4--------|
E |-7----7----2--------|

J'avais mis la radio un peu trop fort,
le climatiseur était mort.

Pre - Chorus

e |--------------------------------------------|
B |--------------------------------------------|
G |--------------------------------------------|
D |--------------------------------------------|
A |-4--6--4--2-----------4--6--4--2------------|
E |-------------4--6--7--------------4--6--11--|

J'ai fait comme si c'était vrai,
comme si on avait la paix.
J'ai vu ton coeur.

Chorus

e |------------------------------------------------------------|
B |------------------------------------------------------------|
G |-----------4----------4-----4-------------------------------| (x5)
D |---4-----------4---5/8----7----7--4-------------------------|
A |-------4----------------------------7----7--4---4--6--4--2--|
E |-4---4---4---4------------------------4---------------------|

On fait comme si.