Misc. Unsigned Bands - Pau Hana - Wake Up My Darling Text Guitar Tab

Learn the song with the online tablature player
This song NO ONE has tabbed and "I" am gonna tab it for you. Its an island song.

s - slide
h - hammer on
p - pull off
* - guitar slap (slap the strings)
-- - Half a sec
Pa - Pause the guitar, but sing XD

Strumming pattern: Down, Down-slap, Up, Up, Down-slap, Up, then switch chords/tabs

~*Guitar #1 Intro*~

E|---------------------------------------------------|
A|---------------------------------------------------|
D|---------------------------------------------------|
G|-------3s5-3---------------------------------------|
B|-------------3--------------1---1-1---1-3---3-3----|
E|--1---1--------5---5-5---5------------------------0| Repeat from beginning
      *            *     *      *     *     *     *

~*Guitar #2 Intro(strumming)*~

Cuz everytime we meet, i get this funny little feeling that takes over....

E|--1-----------0-----------------1----------------------0---|
A|--1-----------1-----------------3----------------------1---|
D|--2-----------2-----------------3----------------------0---|
G|--3-----------2-----------------3----------------------2---|
B|--3-----------0-----------------1----------------------3---|
E|--1-----------0-----------------0----------------------0---|
(Basically whole song)(Chorus)

..Oh cant you see girl....a sweet lady your my one and only remedy..
                              (Pause)             (Pause)
E|--0-----------------1----------Pa------------0------Pa-----|
A|--1-----------------3----------Pa------------1------Pa-----|
D|--2-----------------3----------Pa------------0------Pa-----| then repeat
G|--2-----------------3----------Pa------------2------Pa-----| above tab
B|--0-----------------1----------Pa------------3------Pa-----|
E|--0-----------------0----------Pa------------0------Pa-----|

____________________________________________________________________________

~*Solo*~: ...take it away ya'll...(start solo)

E|------------------------------------------------------------------------|
A|-7---7-7-6--6h7p6-7-4---------------------------11-11s14-14-14s12-12-12-|
D|------------------------------8-10-11-11s13-11--------------------------|
G|-----------------------6-8-10-------------------------------------------|
B|------------------------------------------------------------------------|
E|------------------------------------------------------------------------|
 cont.
E|-----------------------------------------------------------------|
A|-11--------------------------------------------------------------|
D|------10h11p10-13-------------8-10-11-11s13-11-10h11p10-10-------|
G|------------------13--6s8-10------------------------------11-13--|
B|-----------------------------------------------------------------|
E|-----------------------------------------------------------------|
    end of solo, then start strumming