Misc. Unsigned Bands - Paul Romero - Necropolis Theme Text Guitar Tab

Learn song with the online tabulature player
Heroes Of Might and Magic 3 - Necropolis theme by Paul Romero


E |-9-----------8-----------9-----------6-----------8-----------4----------|
B |----6-----6-----6-----6-----6-----6-----6-----6-----6-----6-----6-----6-|
G |-------6-----------6-----------6-----------6-----------5-----------5----|
D |------------------------------------------------------------------------|
A |------------------------------------------------------------------------|
E |------------------------------------------------------------------------|

E |-6-----------------------9-----------9-----11----9-----8-----6-----4--8-|
B |----6-----6-----------------7-----7-----7-----7-----7-----7-----7-------|
G |-------6-----6-----6-----------6----------------------------------------|
D |----------------8-----8-------------------------------------------------|
A |------------------------------------------------------------------------|
E |------------------------------------------------------------------------|

E |----------8-----9-----8-----6-----4-----------6-------------------------|
B |-9-----9-----9-----9-----6-----6-----6--4--6-----6-----6----------------|
G |----8-----------------------------------------------6-----6-----6-------|
D |-------------------------------------------------------------8-----8----|
A |------------------------------------------------------------------------|
E |----------------------------------------------------------------------6-|